  0
SECTION
  2
HEADER
  9
$ACADVER
  1
AC1015
  9
$ACADMAINTVER
 70
     6
  9
$DWGCODEPAGE
  3
ANSI_1254
  9
$INSBASE
 10
0.0
 20
0.0
 30
0.0
  9
$EXTMIN
 10
0.0
 20
0.0
 30
0.0
  9
$EXTMAX
 10
279.4
 20
215.9
 30
0.0
  9
$LIMMIN
 10
0.0
 20
0.0
  9
$LIMMAX
 10
279.4
 20
215.9
  9
$ORTHOMODE
 70
     0
  9
$REGENMODE
 70
     1
  9
$FILLMODE
 70
     1
  9
$QTEXTMODE
 70
     0
  9
$MIRRTEXT
 70
     1
  9
$LTSCALE
 40
1.0
  9
$ATTMODE
 70
     1
  9
$TEXTSIZE
 40
3.5
  9
$TRACEWID
 40
1.0
  9
$TEXTSTYLE
  7
Standard
  9
$CLAYER
  8
0
  9
$CELTYPE
  6
ByLayer
  9
$CECOLOR
 62
   256
  9
$CELTSCALE
 40
1.0
  9
$DISPSILH
 70
     0
  9
$DIMSCALE
 40
1.0
  9
$DIMASZ
 40
3.5
  9
$DIMEXO
 40
1.0
  9
$DIMDLI
 40
3.75
  9
$DIMRND
 40
0.0
  9
$DIMDLE
 40
0.0
  9
$DIMEXE
 40
1.0
  9
$DIMTP
 40
0.0
  9
$DIMTM
 40
0.0
  9
$DIMTXT
 40
3.5
  9
$DIMCEN
 40
2.5
  9
$DIMTSZ
 40
0.0
  9
$DIMTOL
 70
     0
  9
$DIMLIM
 70
     0
  9
$DIMTIH
 70
     1
  9
$DIMTOH
 70
     1
  9
$DIMSE1
 70
     0
  9
$DIMSE2
 70
     0
  9
$DIMTAD
 70
     1
  9
$DIMZIN
 70
     0
  9
$DIMBLK
  1

  9
$DIMASO
 70
     1
  9
$DIMSHO
 70
     1
  9
$DIMPOST
  1

  9
$DIMAPOST
  1

  9
$DIMALT
 70
     0
  9
$DIMALTD
 70
     3
  9
$DIMALTF
 40
0.0393700787
  9
$DIMLFAC
 40
1.0
  9
$DIMTOFL
 70
     1
  9
$DIMTVP
 40
0.0
  9
$DIMTIX
 70
     0
  9
$DIMSOXD
 70
     0
  9
$DIMSAH
 70
     0
  9
$DIMBLK1
  1

  9
$DIMBLK2
  1

  9
$DIMSTYLE
  2
ISO-25
  9
$DIMCLRD
 70
     0
  9
$DIMCLRE
 70
     0
  9
$DIMCLRT
 70
     0
  9
$DIMTFAC
 40
1.0
  9
$DIMGAP
 40
1.524
  9
$DIMJUST
 70
     0
  9
$DIMSD1
 70
     0
  9
$DIMSD2
 70
     0
  9
$DIMTOLJ
 70
     0
  9
$DIMTZIN
 70
     0
  9
$DIMALTZ
 70
     0
  9
$DIMALTTZ
 70
     0
  9
$DIMUPT
 70
     0
  9
$DIMDEC
 70
     2
  9
$DIMTDEC
 70
     2
  9
$DIMALTU
 70
     2
  9
$DIMALTTD
 70
     3
  9
$DIMTXSTY
  7
Standard
  9
$DIMAUNIT
 70
     0
  9
$DIMADEC
 70
     2
  9
$DIMALTRND
 40
0.0
  9
$DIMAZIN
 70
     0
  9
$DIMDSEP
 70
    44
  9
$DIMATFIT
 70
     3
  9
$DIMFRAC
 70
     0
  9
$DIMLDRBLK
  1

  9
$DIMLUNIT
 70
     2
  9
$DIMLWD
 70
    -2
  9
$DIMLWE
 70
    -2
  9
$DIMTMOVE
 70
     0
  9
$LUNITS
 70
     2
  9
$LUPREC
 70
     2
  9
$SKETCHINC
 40
1.0
  9
$FILLETRAD
 40
10.0
  9
$AUNITS
 70
     0
  9
$AUPREC
 70
     2
  9
$MENU
  1
.
  9
$ELEVATION
 40
0.0
  9
$PELEVATION
 40
0.0
  9
$THICKNESS
 40
0.0
  9
$LIMCHECK
 70
     0
  9
$CHAMFERA
 40
0.0
  9
$CHAMFERB
 40
0.0
  9
$CHAMFERC
 40
0.0
  9
$CHAMFERD
 40
0.0
  9
$SKPOLY
 70
     0
  9
$TDCREATE
 40
2459935.699946273
  9
$TDUCREATE
 40
2459935.574946273
  9
$TDUPDATE
 40
2459935.699946632
  9
$TDUUPDATE
 40
2459935.574946632
  9
$TDINDWG
 40
0.0000000116
  9
$TDUSRTIMER
 40
0.0000000116
  9
$USRTIMER
 70
     1
  9
$ANGBASE
 50
0.0
  9
$ANGDIR
 70
     0
  9
$PDMODE
 70
     0
  9
$PDSIZE
 40
-1.0
  9
$PLINEWID
 40
0.0
  9
$SPLFRAME
 70
     0
  9
$SPLINETYPE
 70
     6
  9
$SPLINESEGS
 70
     8
  9
$HANDSEED
  5
F6
  9
$SURFTAB1
 70
     6
  9
$SURFTAB2
 70
     6
  9
$SURFTYPE
 70
     6
  9
$SURFU
 70
     6
  9
$SURFV
 70
     6
  9
$UCSBASE
  2

  9
$UCSNAME
  2

  9
$UCSORG
 10
0.0
 20
0.0
 30
0.0
  9
$UCSXDIR
 10
1.0
 20
0.0
 30
0.0
  9
$UCSYDIR
 10
0.0
 20
1.0
 30
0.0
  9
$UCSORTHOREF
  2

  9
$UCSORTHOVIEW
 70
     0
  9
$UCSORGTOP
 10
0.0
 20
0.0
 30
0.0
  9
$UCSORGBOTTOM
 10
0.0
 20
0.0
 30
0.0
  9
$UCSORGLEFT
 10
0.0
 20
0.0
 30
0.0
  9
$UCSORGRIGHT
 10
0.0
 20
0.0
 30
0.0
  9
$UCSORGFRONT
 10
0.0
 20
0.0
 30
0.0
  9
$UCSORGBACK
 10
0.0
 20
0.0
 30
0.0
  9
$PUCSBASE
  2

  9
$PUCSNAME
  2

  9
$PUCSORG
 10
0.0
 20
0.0
 30
0.0
  9
$PUCSXDIR
 10
1.0
 20
0.0
 30
0.0
  9
$PUCSYDIR
 10
0.0
 20
1.0
 30
0.0
  9
$PUCSORTHOREF
  2

  9
$PUCSORTHOVIEW
 70
     0
  9
$PUCSORGTOP
 10
0.0
 20
0.0
 30
0.0
  9
$PUCSORGBOTTOM
 10
0.0
 20
0.0
 30
0.0
  9
$PUCSORGLEFT
 10
0.0
 20
0.0
 30
0.0
  9
$PUCSORGRIGHT
 10
0.0
 20
0.0
 30
0.0
  9
$PUCSORGFRONT
 10
0.0
 20
0.0
 30
0.0
  9
$PUCSORGBACK
 10
0.0
 20
0.0
 30
0.0
  9
$USERI1
 70
     0
  9
$USERI2
 70
     0
  9
$USERI3
 70
     0
  9
$USERI4
 70
     0
  9
$USERI5
 70
     0
  9
$USERR1
 40
0.0
  9
$USERR2
 40
0.0
  9
$USERR3
 40
0.0
  9
$USERR4
 40
0.0
  9
$USERR5
 40
0.0
  9
$WORLDVIEW
 70
     1
  9
$SHADEDGE
 70
     3
  9
$SHADEDIF
 70
    70
  9
$TILEMODE
 70
     1
  9
$MAXACTVP
 70
    64
  9
$PINSBASE
 10
0.0
 20
0.0
 30
0.0
  9
$PLIMCHECK
 70
     0
  9
$PEXTMIN
 10
1.0000000000E+20
 20
1.0000000000E+20
 30
1.0000000000E+20
  9
$PEXTMAX
 10
-1.0000000000E+20
 20
-1.0000000000E+20
 30
-1.0000000000E+20
  9
$PLIMMIN
 10
0.0
 20
0.0
  9
$PLIMMAX
 10
420.0
 20
297.0
  9
$UNITMODE
 70
     0
  9
$VISRETAIN
 70
     1
  9
$PLINEGEN
 70
     0
  9
$PSLTSCALE
 70
     1
  9
$TREEDEPTH
 70
  3020
  9
$CMLSTYLE
  2
Standard
  9
$CMLJUST
 70
     0
  9
$CMLSCALE
 40
20.0
  9
$PROXYGRAPHICS
 70
     1
  9
$MEASUREMENT
 70
     1
  9
$CELWEIGHT
370
    -1
  9
$ENDCAPS
280
     0
  9
$JOINSTYLE
280
     0
  9
$LWDISPLAY
290
     1
  9
$INSUNITS
 70
     4
  9
$HYPERLINKBASE
  1

  9
$STYLESHEET
  1

  9
$XEDIT
290
     1
  9
$CEPSNTYPE
380
     0
  9
$PSTYLEMODE
290
     1
  9
$FINGERPRINTGUID
  2
{04378982-2e73-46f5-9537-dc20f4e3cfc6}
  9
$VERSIONGUID
  2
{FAEB1C32-E019-11D5-929B-00C0DF256EC4}
  9
$EXTNAMES
290
     1
  9
$PSVPSCALE
 40
0.0
  9
$OLESTARTUP
290
     0
  0
ENDSEC
  0
SECTION
  2
CLASSES
  0
CLASS
  1
ACDBDICTIONARYWDFLT
  2
AcDbDictionaryWithDefault
  3
ObjectDBX Classes
 90
        0
280
     0
281
     0
  0
CLASS
  1
VISUALSTYLE
  2
AcDbVisualStyle
  3
ObjectDBX Classes
 90
     4095
280
     0
281
     0
  0
CLASS
  1
MATERIAL
  2
AcDbMaterial
  3
ObjectDBX Classes
 90
     1153
280
     0
281
     0
  0
CLASS
  1
SCALE
  2
AcDbScale
  3
ObjectDBX Classes
 90
     1153
280
     0
281
     0
  0
CLASS
  1
TABLESTYLE
  2
AcDbTableStyle
  3
ObjectDBX Classes
 90
     4095
280
     0
281
     0
  0
CLASS
  1
MLEADERSTYLE
  2
AcDbMLeaderStyle
  3
ACDB_MLEADERSTYLE_CLASS
 90
     4095
280
     0
281
     0
  0
CLASS
  1
SUN
  2
AcDbSun
  3
SCENEOE
 90
     1153
280
     0
281
     0
  0
CLASS
  1
ACDBPLACEHOLDER
  2
AcDbPlaceHolder
  3
ObjectDBX Classes
 90
        0
280
     0
281
     0
  0
CLASS
  1
LAYOUT
  2
AcDbLayout
  3
ObjectDBX Classes
 90
        0
280
     0
281
     0
  0
ENDSEC
  0
SECTION
  2
TABLES
  0
TABLE
  2
VPORT
  5
8
330
0
100
AcDbSymbolTable
 70
     1
  0
VPORT
  5
29
330
8
100
AcDbSymbolTableRecord
100
AcDbViewportTableRecord
  2
*Active
 70
     0
 10
0.0
 20
0.0
 11
1.0
 21
1.0
 12
139.7
 22
107.95
 13
0.0
 23
0.0
 14
10.0
 24
10.0
 15
10.0
 25
10.0
 16
0.0
 26
0.0
 36
1.0
 17
0.0
 27
0.0
 37
0.0
 40
215.9
 41
1.2941176471
 42
50.0
 43
0.0
 44
0.0
 50
0.0
 51
0.0
 71
     0
 72
  2000
 73
     1
 74
     3
 75
     0
 76
     0
 77
     0
 78
     0
281
     0
 65
     1
110
0.0
120
0.0
130
0.0
111
1.0
121
0.0
131
0.0
112
0.0
122
1.0
132
0.0
 79
     0
146
0.0
  0
ENDTAB
  0
TABLE
  2
LTYPE
  5
5
330
0
100
AcDbSymbolTable
 70
     6
  0
LTYPE
  5
14
330
5
100
AcDbSymbolTableRecord
100
AcDbLinetypeTableRecord
  2
ByBlock
 70
     0
  3

 72
    65
 73
     0
 40
0.0
  0
LTYPE
  5
15
330
5
100
AcDbSymbolTableRecord
100
AcDbLinetypeTableRecord
  2
ByLayer
 70
     0
  3

 72
    65
 73
     0
 40
0.0
  0
LTYPE
  5
16
330
5
100
AcDbSymbolTableRecord
100
AcDbLinetypeTableRecord
  2
Continuous
 70
     0
  3
Solid line
 72
    65
 73
     0
 40
0.0
  0
LTYPE
  5
6E
330
5
100
AcDbSymbolTableRecord
100
AcDbLinetypeTableRecord
  2
HIDDEN
 70
     0
  3
Hidden __ __ __ __ __ __ __ __ __ __ __ __ __ __
 72
    65
 73
     2
 40
1.905
 49
1.27
 74
     0
 49
-0.635
 74
     0
  0
LTYPE
  5
6F
330
5
100
AcDbSymbolTableRecord
100
AcDbLinetypeTableRecord
  2
PHANTOM
 70
     0
  3
Phantom ______  __  __  ______  __  __  ______
 72
    65
 73
     6
 40
12.7
 49
6.35
 74
     0
 49
-1.27
 74
     0
 49
1.27
 74
     0
 49
-1.27
 74
     0
 49
1.27
 74
     0
 49
-1.27
 74
     0
  0
LTYPE
  5
70
330
5
100
AcDbSymbolTableRecord
100
AcDbLinetypeTableRecord
  2
CENTER
 70
     0
  3
Center ____ _ ____ _ ____ _ ____ _ ____ _ ____
 72
    65
 73
     4
 40
10.16
 49
6.35
 74
     0
 49
-1.27
 74
     0
 49
1.27
 74
     0
 49
-1.27
 74
     0
  0
LTYPE
  5
71
330
5
100
AcDbSymbolTableRecord
100
AcDbLinetypeTableRecord
  2
CENTERX2
 70
     0
  3
Center (2x) ________  __  ________  __  _____
 72
    65
 73
     4
 40
20.32
 49
12.7
 74
     0
 49
-2.54
 74
     0
 49
2.54
 74
     0
 49
-2.54
 74
     0
  0
LTYPE
  5
72
330
5
100
AcDbSymbolTableRecord
100
AcDbLinetypeTableRecord
  2
DOT2
 70
     0
  3
Dot (.5x) ........................................
 72
    65
 73
     2
 40
0.635
 49
0.0
 74
     0
 49
-0.635
 74
     0
  0
ENDTAB
  0
TABLE
  2
LAYER
  5
2
330
0
100
AcDbSymbolTable
 70
    17
  0
LAYER
  5
10
330
2
100
AcDbSymbolTableRecord
100
AcDbLayerTableRecord
  2
0
 70
     0
 62
     7
  6
Continuous
370
    -3
390
F
  0
LAYER
  5
73
330
2
100
AcDbSymbolTableRecord
100
AcDbLayerTableRecord
  2
FORMAT
 70
     0
 62
     7
  6
Continuous
370
    -3
390
F
  0
LAYER
  5
74
330
2
100
AcDbSymbolTableRecord
100
AcDbLayerTableRecord
  2
YARDIMCI_GEOMETRI
 70
     0
 62
    -6
  6
Continuous
290
     0
370
    -3
390
F
  0
LAYER
  5
75
330
2
100
AcDbSymbolTableRecord
100
AcDbLayerTableRecord
  2
SAYFA_CERCEVESI
 70
     0
 62
     7
  6
Continuous
370
    25
390
F
  0
LAYER
  5
76
330
2
100
AcDbSymbolTableRecord
100
AcDbLayerTableRecord
  2
ANTET
 70
     0
 62
     7
  6
Continuous
370
    -3
390
F
  0
LAYER
  5
77
330
2
100
AcDbSymbolTableRecord
100
AcDbLayerTableRecord
  2
OLCU
 70
     0
 62
   150
  6
Continuous
370
    -3
390
F
  0
LAYER
  5
78
330
2
100
AcDbSymbolTableRecord
100
AcDbLayerTableRecord
  2
METIN
 70
     0
 62
    96
  6
Continuous
370
    -3
390
F
  0
LAYER
  5
79
330
2
100
AcDbSymbolTableRecord
100
AcDbLayerTableRecord
  2
BALON
 70
     0
 62
     5
  6
Continuous
370
    -3
390
F
  0
LAYER
  5
7A
330
2
100
AcDbSymbolTableRecord
100
AcDbLayerTableRecord
  2
VURGU
 70
     0
 62
     7
  6
Continuous
370
    -3
390
F
  0
LAYER
  5
7B
330
2
100
AcDbSymbolTableRecord
100
AcDbLayerTableRecord
  2
SILIK
 70
     0
 62
     7
  6
Continuous
370
    -3
390
F
  0
LAYER
  5
7C
330
2
100
AcDbSymbolTableRecord
100
AcDbLayerTableRecord
  2
MODEL
 70
     0
 62
     7
  6
Continuous
370
    -3
390
F
  0
LAYER
  5
7D
330
2
100
AcDbSymbolTableRecord
100
AcDbLayerTableRecord
  2
DETAYLANDıRMA
 70
     0
 62
   190
  6
Continuous
370
    -3
390
F
  0
LAYER
  5
7E
330
2
100
AcDbSymbolTableRecord
100
AcDbLayerTableRecord
  2
TOLERANS
 70
     0
 62
   230
  6
Continuous
370
    -3
390
F
  0
LAYER
  5
7F
330
2
100
AcDbSymbolTableRecord
100
AcDbLayerTableRecord
  2
MERKEZ_CIZGILERI
 70
     0
 62
    30
  6
Continuous
370
    -3
390
F
  0
LAYER
  5
80
330
2
100
AcDbSymbolTableRecord
100
AcDbLayerTableRecord
  2
KESIT-DETAY_CIZGILERI
 70
     0
 62
     7
  6
Continuous
370
    -3
390
F
  0
LAYER
  5
81
330
2
100
AcDbSymbolTableRecord
100
AcDbLayerTableRecord
  2
\U+041E\U+0421\U+0415\U+0412\U+042B\U+0415
 70
     0
 62
     7
  6
Continuous
370
    -3
390
F
  0
LAYER
  5
82
330
2
100
AcDbSymbolTableRecord
100
AcDbLayerTableRecord
  2
\U+0412\U+041E\U+0414\U+042F\U+041D\U+042B\U+0415_\U+0417\U+041D\U+0410\U+041A\U+0418
 70
     0
 62
    11
  6
Continuous
370
    -3
390
F
  0
ENDTAB
  0
TABLE
  2
STYLE
  5
3
330
0
100
AcDbSymbolTable
 70
     1
  0
STYLE
  5
11
330
3
100
AcDbSymbolTableRecord
100
AcDbTextStyleTableRecord
  2
Standard
 70
     0
 40
0.0
 41
1.0
 50
0.0
 71
     0
 42
3.5
  3
txt
  4

  0
ENDTAB
  0
TABLE
  2
VIEW
  5
6
330
0
100
AcDbSymbolTable
 70
     0
  0
ENDTAB
  0
TABLE
  2
UCS
  5
7
330
0
100
AcDbSymbolTable
 70
     0
  0
ENDTAB
  0
TABLE
  2
APPID
  5
9
330
0
100
AcDbSymbolTable
 70
     1
  0
APPID
  5
12
330
9
100
AcDbSymbolTableRecord
100
AcDbRegAppTableRecord
  2
ACAD
 70
     0
  0
ENDTAB
  0
TABLE
  2
DIMSTYLE
  5
A
330
0
100
AcDbSymbolTable
 70
     1
100
AcDbDimStyleTable
  0
DIMSTYLE
105
27
330
A
100
AcDbSymbolTableRecord
100
AcDbDimStyleTableRecord
  2
ISO-25
 70
     0
 41
2.5
 42
0.625
 43
3.75
 44
1.25
 73
     0
 74
     0
 77
     1
 78
     8
140
2.5
141
2.5
143
0.0393700787
147
0.625
171
     3
172
     1
178
     0
271
     2
272
     2
274
     3
278
    44
283
     0
284
     8
340
11
  0
ENDTAB
  0
TABLE
  2
BLOCK_RECORD
  5
1
330
0
100
AcDbSymbolTable
 70
     5
  0
BLOCK_RECORD
  5
1F
330
1
100
AcDbSymbolTableRecord
100
AcDbBlockTableRecord
  2
*Model_Space
340
22
  0
BLOCK_RECORD
  5
1B
330
1
100
AcDbSymbolTableRecord
100
AcDbBlockTableRecord
  2
*Paper_Space
340
1E
  0
BLOCK_RECORD
  5
23
330
1
100
AcDbSymbolTableRecord
100
AcDbBlockTableRecord
  2
*Paper_Space0
340
26
  0
BLOCK_RECORD
  5
95
330
1
100
AcDbSymbolTableRecord
100
AcDbBlockTableRecord
  2
SW_CENTERMARKSYMBOL_0
340
0
102
{BLKREFS
331
A0
102
}
  0
BLOCK_RECORD
  5
AA
330
1
100
AcDbSymbolTableRecord
100
AcDbBlockTableRecord
  2
SW_CENTERMARKSYMBOL_1
340
0
102
{BLKREFS
331
B5
102
}
  0
BLOCK_RECORD
  5
BF
330
1
100
AcDbSymbolTableRecord
100
AcDbBlockTableRecord
  2
SW_CENTERMARKSYMBOL_2
340
0
102
{BLKREFS
331
CA
102
}
  0
BLOCK_RECORD
  5
D2
330
1
100
AcDbSymbolTableRecord
100
AcDbBlockTableRecord
  2
SW_CENTERMARKSYMBOL_3
340
0
102
{BLKREFS
331
DD
102
}
  0
ENDTAB
  0
ENDSEC
  0
SECTION
  2
BLOCKS
  0
BLOCK
  5
20
330
1F
100
AcDbEntity
  8
0
100
AcDbBlockBegin
  2
*Model_Space
 70
     0
 10
0.0
 20
0.0
 30
0.0
  3
*Model_Space
  1

  0
ENDBLK
  5
21
330
1F
100
AcDbEntity
  8
0
100
AcDbBlockEnd
  0
BLOCK
  5
1C
330
1B
100
AcDbEntity
 67
     1
  8
0
100
AcDbBlockBegin
  2
*Paper_Space
 70
     0
 10
0.0
 20
0.0
 30
0.0
  3
*Paper_Space
  1

  0
ENDBLK
  5
1D
330
1B
100
AcDbEntity
 67
     1
  8
0
100
AcDbBlockEnd
  0
BLOCK
  5
24
330
23
100
AcDbEntity
  8
0
100
AcDbBlockBegin
  2
*Paper_Space0
 70
     0
 10
0.0
 20
0.0
 30
0.0
  3
*Paper_Space0
  1

  0
ENDBLK
  5
25
330
23
100
AcDbEntity
  8
0
100
AcDbBlockEnd
  0
BLOCK
  5
96
330
95
100
AcDbEntity
  8
0
100
AcDbBlockBegin
  2
SW_CENTERMARKSYMBOL_0
 70
     0
 10
0.0
 20
0.0
 30
0.0
  3
SW_CENTERMARKSYMBOL_0
  1

  0
LINE
  5
98
330
95
100
AcDbEntity
  8
FORMAT
 62
     0
100
AcDbLine
 10
0.0
 20
0.0
 30
0.0
 11
0.0
 21
2.5
 31
0.0
  0
LINE
  5
99
330
95
100
AcDbEntity
  8
FORMAT
 62
     0
100
AcDbLine
 10
0.0
 20
0.0
 30
0.0
 11
-2.5
 21
0.0
 31
0.0
  0
LINE
  5
9A
330
95
100
AcDbEntity
  8
FORMAT
 62
     0
100
AcDbLine
 10
0.0
 20
0.0
 30
0.0
 11
0.0
 21
-2.5
 31
0.0
  0
LINE
  5
9B
330
95
100
AcDbEntity
  8
FORMAT
 62
     0
100
AcDbLine
 10
0.0
 20
0.0
 30
0.0
 11
2.5
 21
0.0
 31
0.0
  0
LINE
  5
9C
330
95
100
AcDbEntity
  8
FORMAT
 62
     0
100
AcDbLine
 10
0.0
 20
5.0
 30
0.0
 11
0.0
 21
227.5
 31
0.0
  0
LINE
  5
9D
330
95
100
AcDbEntity
  8
FORMAT
 62
     0
100
AcDbLine
 10
-5.0
 20
0.0
 30
0.0
 11
-227.5
 21
0.0
 31
0.0
  0
LINE
  5
9E
330
95
100
AcDbEntity
  8
FORMAT
 62
     0
100
AcDbLine
 10
0.0
 20
-5.0
 30
0.0
 11
0.0
 21
-227.5
 31
0.0
  0
LINE
  5
9F
330
95
100
AcDbEntity
  8
FORMAT
 62
     0
100
AcDbLine
 10
5.0
 20
0.0
 30
0.0
 11
227.5
 21
0.0
 31
0.0
  0
ENDBLK
  5
97
330
95
100
AcDbEntity
  8
0
100
AcDbBlockEnd
  0
BLOCK
  5
AB
330
AA
100
AcDbEntity
  8
0
100
AcDbBlockBegin
  2
SW_CENTERMARKSYMBOL_1
 70
     0
 10
0.0
 20
0.0
 30
0.0
  3
SW_CENTERMARKSYMBOL_1
  1

  0
LINE
  5
AD
330
AA
100
AcDbEntity
  8
FORMAT
 62
     0
100
AcDbLine
 10
0.0
 20
0.0
 30
0.0
 11
0.0
 21
2.5
 31
0.0
  0
LINE
  5
AE
330
AA
100
AcDbEntity
  8
FORMAT
 62
     0
100
AcDbLine
 10
0.0
 20
0.0
 30
0.0
 11
-2.5
 21
0.0
 31
0.0
  0
LINE
  5
AF
330
AA
100
AcDbEntity
  8
FORMAT
 62
     0
100
AcDbLine
 10
0.0
 20
0.0
 30
0.0
 11
0.0
 21
-2.5
 31
0.0
  0
LINE
  5
B0
330
AA
100
AcDbEntity
  8
FORMAT
 62
     0
100
AcDbLine
 10
0.0
 20
0.0
 30
0.0
 11
2.5
 21
0.0
 31
0.0
  0
LINE
  5
B1
330
AA
100
AcDbEntity
  8
FORMAT
 62
     0
100
AcDbLine
 10
0.0
 20
5.0
 30
0.0
 11
0.0
 21
227.5
 31
0.0
  0
LINE
  5
B2
330
AA
100
AcDbEntity
  8
FORMAT
 62
     0
100
AcDbLine
 10
-5.0
 20
0.0
 30
0.0
 11
-227.5
 21
0.0
 31
0.0
  0
LINE
  5
B3
330
AA
100
AcDbEntity
  8
FORMAT
 62
     0
100
AcDbLine
 10
0.0
 20
-5.0
 30
0.0
 11
0.0
 21
-227.5
 31
0.0
  0
LINE
  5
B4
330
AA
100
AcDbEntity
  8
FORMAT
 62
     0
100
AcDbLine
 10
5.0
 20
0.0
 30
0.0
 11
227.5
 21
0.0
 31
0.0
  0
ENDBLK
  5
AC
330
AA
100
AcDbEntity
  8
0
100
AcDbBlockEnd
  0
BLOCK
  5
C0
330
BF
100
AcDbEntity
  8
0
100
AcDbBlockBegin
  2
SW_CENTERMARKSYMBOL_2
 70
     0
 10
0.0
 20
0.0
 30
0.0
  3
SW_CENTERMARKSYMBOL_2
  1

  0
LINE
  5
C2
330
BF
100
AcDbEntity
  8
FORMAT
 62
     0
100
AcDbLine
 10
0.0
 20
0.0
 30
0.0
 11
0.0
 21
2.5
 31
0.0
  0
LINE
  5
C3
330
BF
100
AcDbEntity
  8
FORMAT
 62
     0
100
AcDbLine
 10
0.0
 20
0.0
 30
0.0
 11
-2.5
 21
0.0
 31
0.0
  0
LINE
  5
C4
330
BF
100
AcDbEntity
  8
FORMAT
 62
     0
100
AcDbLine
 10
0.0
 20
0.0
 30
0.0
 11
0.0
 21
-2.5
 31
0.0
  0
LINE
  5
C5
330
BF
100
AcDbEntity
  8
FORMAT
 62
     0
100
AcDbLine
 10
0.0
 20
0.0
 30
0.0
 11
2.5
 21
0.0
 31
0.0
  0
LINE
  5
C6
330
BF
100
AcDbEntity
  8
FORMAT
 62
     0
100
AcDbLine
 10
0.0
 20
5.0
 30
0.0
 11
0.0
 21
227.5
 31
0.0
  0
LINE
  5
C7
330
BF
100
AcDbEntity
  8
FORMAT
 62
     0
100
AcDbLine
 10
-5.0
 20
0.0
 30
0.0
 11
-227.5
 21
0.0
 31
0.0
  0
LINE
  5
C8
330
BF
100
AcDbEntity
  8
FORMAT
 62
     0
100
AcDbLine
 10
0.0
 20
-5.0
 30
0.0
 11
0.0
 21
-227.5
 31
0.0
  0
LINE
  5
C9
330
BF
100
AcDbEntity
  8
FORMAT
 62
     0
100
AcDbLine
 10
5.0
 20
0.0
 30
0.0
 11
227.5
 21
0.0
 31
0.0
  0
ENDBLK
  5
C1
330
BF
100
AcDbEntity
  8
0
100
AcDbBlockEnd
  0
BLOCK
  5
D3
330
D2
100
AcDbEntity
  8
0
100
AcDbBlockBegin
  2
SW_CENTERMARKSYMBOL_3
 70
     0
 10
0.0
 20
0.0
 30
0.0
  3
SW_CENTERMARKSYMBOL_3
  1

  0
LINE
  5
D5
330
D2
100
AcDbEntity
  8
FORMAT
 62
     0
100
AcDbLine
 10
0.0
 20
0.0
 30
0.0
 11
0.0
 21
2.5
 31
0.0
  0
LINE
  5
D6
330
D2
100
AcDbEntity
  8
FORMAT
 62
     0
100
AcDbLine
 10
0.0
 20
0.0
 30
0.0
 11
-2.5
 21
0.0
 31
0.0
  0
LINE
  5
D7
330
D2
100
AcDbEntity
  8
FORMAT
 62
     0
100
AcDbLine
 10
0.0
 20
0.0
 30
0.0
 11
0.0
 21
-2.5
 31
0.0
  0
LINE
  5
D8
330
D2
100
AcDbEntity
  8
FORMAT
 62
     0
100
AcDbLine
 10
0.0
 20
0.0
 30
0.0
 11
2.5
 21
0.0
 31
0.0
  0
LINE
  5
D9
330
D2
100
AcDbEntity
  8
FORMAT
 62
     0
100
AcDbLine
 10
0.0
 20
5.0
 30
0.0
 11
0.0
 21
227.5
 31
0.0
  0
LINE
  5
DA
330
D2
100
AcDbEntity
  8
FORMAT
 62
     0
100
AcDbLine
 10
-5.0
 20
0.0
 30
0.0
 11
-227.5
 21
0.0
 31
0.0
  0
LINE
  5
DB
330
D2
100
AcDbEntity
  8
FORMAT
 62
     0
100
AcDbLine
 10
0.0
 20
-5.0
 30
0.0
 11
0.0
 21
-227.5
 31
0.0
  0
LINE
  5
DC
330
D2
100
AcDbEntity
  8
FORMAT
 62
     0
100
AcDbLine
 10
5.0
 20
0.0
 30
0.0
 11
227.5
 21
0.0
 31
0.0
  0
ENDBLK
  5
D4
330
D2
100
AcDbEntity
  8
0
100
AcDbBlockEnd
  0
ENDSEC
  0
SECTION
  2
ENTITIES
  0
LINE
  5
83
330
1F
100
AcDbEntity
  8
0
  6
Continuous
 62
     7
370
    25
100
AcDbLine
 10
1638.8429802507
 20
1122.1021002167
 30
0.0
 11
1428.8322662383
 21
1243.3387048224
 31
0.0
  0
LINE
  5
84
330
1F
100
AcDbEntity
  8
0
  6
Continuous
 62
     7
370
    25
100
AcDbLine
 10
1203.8505513952
 20
853.616716751
 30
0.0
 11
1413.8612654076
 21
732.3801121454
 31
0.0
  0
SPLINE
  5
85
330
1F
100
AcDbEntity
  8
0
  6
Continuous
 62
     7
370
    25
100
AcDbSpline
210
0.0
220
0.0
230
1.0
 70
     8
 71
     3
 72
    76
 73
    72
 74
     0
 42
0.00000001
 43
0.00000001
 40
0.0
 40
0.0
 40
0.0
 40
0.0
 40
0.0105000368860514
 40
0.0267952634408839
 40
0.0430571729685906
 40
0.0592325751101866
 40
0.0753102181247957
 40
0.0912808869750112
 40
0.1071372753105761
 40
0.1228740399066715
 40
0.1384877549598688
 40
0.1539767847555663
 40
0.1693410991133323
 40
0.1845820556671091
 40
0.1997021699275929
 40
0.2147048895376852
 40
0.2295943842646734
 40
0.2443753588170222
 40
0.2590528919208197
 40
0.2736323023603534
 40
0.2881190408256366
 40
0.3025186052746969
 40
0.316836476941467
 40
0.3310780739399022
 40
0.3452487194968675
 40
0.3593536220849169
 40
0.3733978650453134
 40
0.3873864036396757
 40
0.401324067810989
 40
0.4152155692524022
 40
0.4290655116641413
 40
0.4428784033212371
 40
0.456658671277669
 40
0.4704106766981963
 40
0.4841387309409269
 40
0.4978471121157881
 40
0.5115400819202813
 40
0.5252214182397915
 40
0.5388944885134536
 40
0.5525636086764377
 40
0.5662331387392484
 40
0.5799074993487119
 40
0.5935911879415408
 40
0.6072887943264765
 40
0.6210050154674529
 40
0.6347446691665107
 40
0.6485127062526854
 40
0.6623142207702594
 40
0.6761544575249936
 40
0.6900388161893136
 40
0.7039728509869475
 40
0.7179622647758307
 40
0.7320128961300144
 40
0.7461306977954646
 40
0.7603217046756201
 40
0.7745919893138729
 40
0.7889476027152234
 40
0.80339449833676
 40
0.8179384372402628
 40
0.8325848728222036
 40
0.8473388143133137
 40
0.8622046694758051
 40
0.8771860687144736
 40
0.8922856752108741
 40
0.90750498865608
 40
0.9228441535254645
 40
0.9383017862428461
 40
0.9538748384308765
 40
0.9695585149503625
 40
0.9853462647255862
 40
1.0
 40
1.0
 40
1.0
 40
1.0
 10
1428.83226623834
 20
1243.33870482235
 30
0.0
 10
1426.664544149028
 20
1244.575393355071
 30
0.0
 10
1421.132688872702
 20
1247.731324652094
 30
0.0
 10
1412.129560874474
 20
1252.552188958382
 30
0.0
 10
1401.821409736255
 20
1257.732581158362
 30
0.0
 10
1391.43549484905
 20
1262.588726241628
 30
0.0
 10
1380.995488243395
 20
1267.116015637529
 30
0.0
 10
1370.512703888699
 20
1271.308596862614
 30
0.0
 10
1359.998600922462
 20
1275.163676526471
 30
0.0
 10
1349.46367078977
 20
1278.679081554143
 30
0.0
 10
1338.917696241311
 20
1281.853736176821
 30
0.0
 10
1328.369696800111
 20
1284.68735079997
 30
0.0
 10
1317.828011415261
 20
1287.180315209712
 30
0.0
 10
1307.300382807479
 20
1289.333547521491
 30
0.0
 10
1296.794063410211
 20
1291.148374885698
 30
0.0
 10
1286.315923590097
 20
1292.626431617156
 30
0.0
 10
1275.872556123777
 20
1293.769580605662
 30
0.0
 10
1265.470370563589
 20
1294.579855688468
 30
0.0
 10
1255.115674180083
 20
1295.059422944655
 30
0.0
 10
1244.814737847711
 20
1295.210557746429
 30
0.0
 10
1234.573846708547
 20
1295.035634302748
 30
0.0
 10
1224.399336412347
 20
1294.537124520103
 30
0.0
 10
1214.297616342746
 20
1293.717603333484
 30
0.0
 10
1204.275181556876
 20
1292.579758078454
 30
0.0
 10
1194.338615273051
 20
1291.126399924274
 30
0.0
 10
1184.494583703827
 20
1289.36047581861
 30
0.0
 10
1174.74982490357
 20
1287.285079780972
 30
0.0
 10
1165.111133121074
 20
1284.903462712002
 30
0.0
 10
1155.585339947845
 20
1282.21904015579
 30
0.0
 10
1146.179293351249
 20
1279.235397665521
 30
0.0
 10
1136.899835491716
 20
1275.956293584655
 30
0.0
 10
1127.753780051957
 20
1272.38565917423
 30
0.0
 10
1118.747889657587
 20
1268.527596099481
 30
0.0
 10
1109.88885384405
 20
1264.386371343675
 30
0.0
 10
1101.183267922081
 20
1259.966409649564
 30
0.0
 10
1092.637613018702
 20
1255.272283609909
 30
0.0
 10
1084.258336285439
 20
1250.308760045972
 30
0.0
 10
1076.051908725975
 20
1245.080857739334
 30
0.0
 10
1068.024608299064
 20
1239.593740083267
 30
0.0
 10
1060.182414785643
 20
1233.85262269669
 30
0.0
 10
1052.530932809389
 20
1227.862670079335
 30
0.0
 10
1045.075566281932
 20
1221.629091946213
 30
0.0
 10
1037.821510849234
 20
1215.15712084302
 30
0.0
 10
1030.773748607189
 20
1208.451988547402
 30
0.0
 10
1023.937045238902
 20
1201.518901502708
 30
0.0
 10
1017.315949720131
 20
1194.363015581976
 30
0.0
 10
1010.9147967479
 20
1186.989410558347
 30
0.0
 10
1004.737712043554
 20
1179.403064753002
 30
0.0
 10
998.7886206685648
 20
1171.608830448344
 30
0.0
 10
993.0712584632396
 20
1163.611410792637
 30
0.0
 10
987.5891866709496
 20
1155.41533908293
 30
0.0
 10
982.3458097378686
 20
1147.024961494322
 30
0.0
 10
977.3443961748998
 20
1138.444424521454
 30
0.0
 10
972.588102228161
 20
1129.677668605424
 30
0.0
 10
968.079997921584
 20
1120.728429623814
 30
0.0
 10
963.8230948038822
 20
1111.600250104785
 30
0.0
 10
959.820374453904
 20
1102.296502160634
 30
0.0
 10
956.0748164587866
 20
1092.820424185452
 30
0.0
 10
952.5894242460779
 20
1083.175173270036
 30
0.0
 10
949.367246617282
 20
1073.363895011538
 30
0.0
 10
946.4113929761644
 20
1063.389811786967
 30
0.0
 10
943.7250379233883
 20
1053.256329819637
 30
0.0
 10
941.311418238716
 20
1042.967163370102
 30
0.0
 10
939.173796840745
 20
1032.526475075319
 30
0.0
 10
937.3154761734356
 20
1021.939019818006
 30
0.0
 10
935.739538400871
 20
1011.21031248592
 30
0.0
 10
934.4495237892397
 20
1000.34670327055
 30
0.0
 10
933.4464742556647
 20
989.3557483430784
 30
0.0
 10
932.7396095617474
 20
978.2453513596117
 30
0.0
 10
932.3167997166692
 20
967.3187037558803
 30
0.0
 10
932.2665648173748
 20
960.084363170972
 30
0.0
 10
932.24238304981
 20
956.6019406924584
 30
0.0
  0
LINE
  5
86
330
1F
100
AcDbEntity
  8
0
  6
Continuous
 62
     7
370
    25
100
AcDbLine
 10
932.2423830498
 20
956.6019406925
 30
0.0
 11
932.2423830498
 21
714.0893195624
 31
0.0
  0
LINE
  5
87
330
1F
100
AcDbEntity
  8
0
  6
Continuous
 62
     7
370
    25
100
AcDbLine
 10
1382.2423830498
 20
714.0893195624
 30
0.0
 11
1382.2423830498
 21
750.6333044004
 31
0.0
  0
LWPOLYLINE
  5
88
330
1F
100
AcDbEntity
  8
0
  6
Continuous
 62
     7
370
    25
100
AcDbPolyline
 90
      160
 70
   128
 43
0.0
 10
1367.2530970622
 20
835.395193601
 10
1367.3773041835
 20
828.2086769535
 10
1367.7497316126
 20
821.1767876884
 10
1368.3697978484
 20
814.310505266
 10
1369.236534731
 20
807.6205505713
 10
1370.3485889537
 20
801.1173691744
 10
1371.7042241758
 20
794.811115021
 10
1373.3013237339
 20
788.7116345784
 10
1375.1373939465
 20
782.8284514613
 10
1377.2095680079
 20
777.1707515617
 10
1379.5146104645
 20
771.7473687065
 10
1382.0489222659
 20
766.5667708641
 10
1384.8085463852
 20
761.637046923
 10
1387.7891739969
 20
756.9658940622
 10
1390.9861512048
 20
752.5606057322
 10
1394.3944863085
 20
748.4280602678
 10
1398.0088575972
 20
744.5747101482
 10
1401.8236216594
 20
741.0065719222
 10
1405.8328221937
 20
737.7292168141
 10
1410.0301993095
 20
734.7477620248
 10
1414.4091993006
 20
732.0668627421
 10
1418.9629848784
 20
729.6907048719
 10
1423.6844458472
 20
727.6229985028
 10
1428.5662102062
 20
725.8669721126
 10
1433.6006556599
 20
724.4253675283
 10
1438.7799215194
 20
723.3004356442
 10
1444.0959209757
 20
722.493932908
 10
1449.5403537268
 20
722.0071185778
 10
1455.1047189373
 20
721.8407527566
 10
1460.7803285114
 20
721.9950952047
 10
1466.5583206585
 20
722.4699049348
 10
1472.4296737297
 20
723.2644405879
 10
1478.3852203042
 20
724.3774615908
 10
1484.4156615029
 20
725.8072300933
 10
1490.5115815079
 20
727.5515136817
 10
1496.6634622636
 20
729.6075888643
 10
1502.8616983386
 20
731.9722453236
 10
1509.0966119228
 20
734.6417909293
 10
1515.3584679391
 20
737.6120575029
 10
1521.6374892424
 20
740.8784073257
 10
1527.9238718864
 20
744.4357403801
 10
1534.2078004308
 20
748.2785023129
 10
1540.4794632672
 20
752.4006931076
 10
1546.7290679385
 20
756.7958764524
 10
1552.9468564289
 20
761.4571897904
 10
1559.1231203997
 20
766.3773550342
 10
1565.248216348
 20
771.5486899296
 10
1571.3125806636
 20
776.9631200512
 10
1577.3067445613
 20
782.6121914091
 10
1583.2213488659
 20
788.487083649
 10
1589.0471586248
 20
794.5786238239
 10
1594.7750775277
 20
800.877300717
 10
1600.3961621091
 20
807.3732796921
 10
1605.9016357127
 20
814.0564180491
 10
1611.282902195
 20
820.9162808608
 10
1616.5315593473
 20
827.9421572656
 10
1621.6394120144
 20
835.1230771918
 10
1626.5984848907
 20
842.4478284851
 10
1631.4010349725
 20
849.904974416
 10
1636.0395636482
 20
857.4828715362
 10
1640.5068284057
 20
865.1696878591
 10
1644.7958541414
 20
872.9534213334
 10
1648.8999440508
 20
880.8219185832
 10
1652.8126900846
 20
888.7628938841
 10
1656.5279829545
 20
896.763948346
 10
1660.0400216715
 20
904.8125892719
 10
1663.3433226043
 20
912.8962496645
 10
1666.4327280404
 20
921.0023078478
 10
1669.30341424
 20
929.1181071741
 10
1671.9508989675
 20
937.2309757861
 10
1674.3710484896
 20
945.3282464026
 10
1676.5600840302
 20
953.3972760968
 10
1678.5145876702
 20
961.4254660365
 10
1680.231507684
 20
969.4002811563
 10
1681.708163305
 20
977.3092697289
 10
1682.9422489107
 20
985.1400828076
 10
1683.9318376229
 20
992.8804935073
 10
1684.6753843162
 20
1000.5184160956
 10
1685.1717280309
 20
1008.0419248629
 10
1685.420093785
 20
1015.4392727436
 10
1685.420093785
 20
1022.6989096569
 10
1685.1717280309
 20
1029.8095005416
 10
1684.6753843162
 20
1036.7599430541
 10
1683.9318376229
 20
1043.5393849035
 10
1682.9422489107
 20
1050.1372407961
 10
1681.708163305
 20
1056.5432089631
 10
1680.231507684
 20
1062.7472872457
 10
1678.5145876702
 20
1068.7397887122
 10
1676.5600840302
 20
1074.5113567828
 10
1674.3710484896
 20
1080.0529798391
 10
1671.9508989675
 20
1085.3560052946
 10
1669.30341424
 20
1090.4121531044
 10
1666.4327280404
 20
1095.2135286941
 10
1663.3433226042
 20
1099.7526352855
 10
1660.0400216715
 20
1104.0223856026
 10
1656.5279829544
 20
1108.016112937
 10
1652.8126900846
 20
1111.7275815577
 10
1648.8999440508
 20
1115.150996447
 10
1644.7958541414
 20
1118.2810123489
 10
1640.5068284057
 20
1121.112742115
 10
1636.0395636482
 20
1123.6417643357
 10
1631.4010349725
 20
1125.8641302427
 10
1626.5984848906
 20
1127.7763698757
 10
1621.6394120144
 20
1129.3754974994
 10
1616.5315593473
 20
1130.6590162658
 10
1611.282902195
 20
1131.6249221128
 10
1605.9016357127
 20
1132.271706893
 10
1600.3961621091
 20
1132.5983607288
 10
1594.7750775277
 20
1132.604373589
 10
1589.0471586248
 20
1132.2897360853
 10
1583.2213488659
 20
1131.6549394867
 10
1577.3067445613
 20
1130.7009749527
 10
1571.3125806636
 20
1129.4293319858
 10
1565.248216348
 20
1127.8419961056
 10
1559.1231203997
 20
1125.9414457484
 10
1552.9468564289
 20
1123.7306483982
 10
1546.7290679385
 20
1121.2130559525
 10
1540.4794632672
 20
1118.3925993331
 10
1534.2078004308
 20
1115.2736823481
 10
1527.9238718864
 20
1111.8611748163
 10
1521.6374892424
 20
1108.1604049631
 10
1515.3584679391
 20
1104.1771511012
 10
1509.0966119228
 20
1099.9176326088
 10
1502.8616983385
 20
1095.3885002182
 10
1496.6634622636
 20
1090.5968256322
 10
1490.5115815079
 20
1085.5500904818
 10
1484.4156615029
 20
1080.2561746447
 10
1478.3852203041
 20
1074.7233439423
 10
1472.4296737297
 20
1068.9602372327
 10
1466.5583206585
 20
1062.9758529231
 10
1460.7803285114
 20
1056.7795349192
 10
1455.1047189373
 20
1050.3809580359
 10
1449.5403537268
 20
1043.7901128915
 10
1444.0959209757
 20
1037.0172903084
 10
1438.7799215194
 20
1030.0730652449
 10
1433.6006556599
 20
1022.9682802843
 10
1428.5662102062
 20
1015.7140287048
 10
1423.6844458472
 20
1008.3216371591
 10
1418.9629848784
 20
1000.8026479892
 10
1414.4091993006
 20
993.168801204
 10
1410.0301993095
 20
985.4320161491
 10
1405.8328221937
 20
977.604372896
 10
1401.8236216594
 20
969.6980933804
 10
1398.0088575972
 20
961.7255223192
 10
1394.3944863085
 20
953.6991079358
 10
1390.9861512048
 20
945.6313825233
 10
1387.7891739969
 20
937.5349428775
 10
1384.8085463852
 20
929.4224306275
 10
1382.0489222659
 20
921.3065124984
 10
1379.5146104645
 20
913.1998605329
 10
1377.2095680079
 20
905.1151323056
 10
1375.1373939465
 20
897.0649511601
 10
1373.3013237339
 20
889.0618864984
 10
1371.7042241758
 20
881.1184341562
 10
1370.3485889537
 20
873.2469968912
 10
1369.236534731
 20
865.4598650184
 10
1368.3697978484
 20
857.7691972198
 10
1367.7497316126
 20
850.1870015603
 10
1367.3773041835
 20
842.7251167382
 10
1367.2530970622
 20
835.395193601
  0
LWPOLYLINE
  5
89
330
1F
100
AcDbEntity
  8
0
  6
Continuous
 62
     7
370
    25
100
AcDbPolyline
 90
      150
 70
   128
 43
0.0
 10
1386.1328481199
 20
846.2942418938
 10
1386.2575004966
 20
853.1921897073
 10
1386.6312359993
 20
860.221793792
 10
1387.25339014
 20
867.3705557684
 10
1388.1228567513
 20
874.6257653986
 10
1389.2380899533
 20
881.9745231846
 10
1390.597106902
 20
889.4037633033
 10
1392.1974913149
 20
896.9002768368
 10
1394.0363977669
 20
904.4507352576
 10
1396.1105567496
 20
912.0417141263
 10
1398.4162804838
 20
919.6597169593
 10
1400.9494694769
 20
927.2911992257
 10
1403.7056198113
 20
934.9225924286
 10
1406.6798311524
 20
942.5403282292
 10
1409.8668154609
 20
950.1308625713
 10
1413.260906395
 20
957.6806997618
 10
1416.8560693849
 20
965.1764164658
 10
1420.6459123619
 20
972.6046855725
 10
1424.6236971237
 20
979.9522998905
 10
1428.7823513139
 20
987.2061956297
 10
1433.1144809973
 20
994.3534756281
 10
1437.6123838054
 20
1001.3814322828
 10
1442.268062631
 20
1008.2775701433
 10
1447.0732398472
 20
1015.0296281281
 10
1452.0193720242
 20
1021.6256013245
 10
1457.0976651196
 20
1028.053762333
 10
1462.2990901134
 20
1034.3026821178
 10
1467.6143990619
 20
1040.3612503276
 10
1473.0341415398
 20
1046.2186950491
 10
1478.5486814426
 20
1051.8646019596
 10
1484.1482141198
 20
1057.2889328424
 10
1489.8227838065
 20
1062.4820434352
 10
1495.5623013249
 20
1067.434700577
 10
1501.3565620223
 20
1072.138098624
 10
1507.1952639147
 20
1076.5838751061
 10
1513.0680260031
 20
1080.7641255951
 10
1518.964406731
 20
1084.6714177581
 10
1524.8739225484
 20
1088.2988045722
 10
1530.786066552
 20
1091.639836676
 10
1536.6903271655
 20
1094.6885738365
 10
1542.5762068289
 20
1097.4395955101
 10
1548.433240663
 20
1099.8880104807
 10
1554.2510150755
 20
1102.0294655559
 10
1560.0191862756
 20
1103.8601533066
 10
1565.7274986655
 20
1105.376818837
 10
1571.3658030742
 20
1106.5767655709
 10
1576.924074802
 20
1107.457860047
 10
1582.3924314448
 20
1108.0185357113
 10
1587.7611504639
 20
1108.257795703
 10
1593.0206864729
 20
1108.1752146266
 10
1598.1616882086
 20
1107.7709393082
 10
1603.1750151577
 20
1107.0456885346
 10
1608.0517538077
 20
1106.0007517752
 10
1612.7832334953
 20
1104.6379868894
 10
1617.3610418222
 20
1102.9598168234
 10
1621.7770396124
 20
1100.9692253024
 10
1626.0233753829
 20
1098.6697515255
 10
1630.0924993036
 20
1096.0654838731
 10
1633.9771766208
 20
1093.1610526381
 10
1637.6705005199
 20
1089.9616217932
 10
1641.1659044058
 20
1086.4728798097
 10
1644.4571735779
 20
1082.7010295435
 10
1647.5384562798
 20
1078.6527772068
 10
1650.4042741033
 20
1074.3353204445
 10
1653.0495317289
 20
1069.7563355371
 10
1655.469525985
 20
1064.9239637527
 10
1657.6599542102
 20
1059.8467968721
 10
1659.616921903
 20
1054.5338619125
 10
1661.3369496463
 20
1048.9946050786
 10
1662.8169792936
 20
1043.2388749668
 10
1664.054379406
 20
1037.2769050552
 10
1665.0469499314
 20
1031.1192955087
 10
1665.7929261156
 20
1024.7769943325
 10
1666.2909816402
 20
1018.2612779064
 10
1666.5402309806
 20
1011.5837309367
 10
1666.5402309806
 20
1004.756225858
 10
1666.2909816402
 20
997.7909017254
 10
1665.7929261156
 20
990.7001426308
 10
1665.0469499314
 20
983.4965556852
 10
1664.054379406
 20
976.1929486033
 10
1662.8169792936
 20
968.802306932
 10
1661.3369496463
 20
961.3377709625
 10
1659.616921903
 20
953.8126123673
 10
1657.6599542102
 20
946.2402106037
 10
1655.469525985
 20
938.6340291258
 10
1653.0495317289
 20
931.0075914467
 10
1650.4042741033
 20
923.3744570943
 10
1647.5384562798
 20
915.7481975028
 10
1644.4571735779
 20
908.1423718835
 10
1641.1659044058
 20
900.5705031168
 10
1637.6705005199
 20
893.0460537091
 10
1633.9771766208
 20
885.5824018568
 10
1630.0924993036
 20
878.1928176606
 10
1626.0233753829
 20
870.8904395314
 10
1621.7770396124
 20
863.6882508311
 10
1617.3610418222
 20
856.5990567884
 10
1612.7832334953
 20
849.6354617315
 10
1608.0517538077
 20
842.8098466785
 10
1603.1750151577
 20
836.1343473237
 10
1598.1616882086
 20
829.6208324613
 10
1593.0206864729
 20
823.2808828832
 10
1587.7611504639
 20
817.1257707883
 10
1582.3924314448
 20
811.1664397413
 10
1576.924074802
 20
805.4134852153
 10
1571.3658030742
 20
799.8771357535
 10
1565.7274986655
 20
794.5672347832
 10
1560.0191862756
 20
789.4932231147
 10
1554.2510150755
 20
784.6641221553
 10
1548.433240663
 20
780.0885178705
 10
1542.5762068289
 20
775.7745455177
 10
1536.6903271655
 20
771.7298751823
 10
1530.786066552
 20
767.9616981405
 10
1524.8739225484
 20
764.4767140736
 10
1518.964406731
 20
761.2811191562
 10
1513.0680260031
 20
758.3805950393
 10
1507.1952639147
 20
755.7802987489
 10
1501.3565620223
 20
753.4848535171
 10
1495.5623013249
 20
751.4983405616
 10
1489.8227838065
 20
749.82429183
 10
1484.1482141198
 20
748.4656837199
 10
1478.5486814426
 20
747.4249317868
 10
1473.0341415398
 20
746.7038864498
 10
1467.6143990619
 20
746.3038297011
 10
1462.2990901134
 20
746.225472827
 10
1457.0976651196
 20
746.4689551432
 10
1452.0193720242
 20
747.0338437471
 10
1447.0732398472
 20
747.9191342873
 10
1442.268062631
 20
749.1232527495
 10
1437.6123838054
 20
750.644058255
 10
1433.1144809973
 20
752.4788468672
 10
1428.7823513139
 20
754.6243563989
 10
1424.6236971237
 20
757.0767722123
 10
1420.6459123619
 20
759.8317340018
 10
1416.8560693849
 20
762.8843435457
 10
1413.260906395
 20
766.2291734157
 10
1409.8668154609
 20
769.8602766264
 10
1406.6798311524
 20
773.7711972087
 10
1403.7056198113
 20
777.9549816886
 10
1400.9494694769
 20
782.4041914499
 10
1398.4162804838
 20
787.1109159601
 10
1396.1105567496
 20
792.0667868347
 10
1394.0363977669
 20
797.2629927162
 10
1392.1974913149
 20
802.6902949402
 10
1390.597106902
 20
808.3390439613
 10
1389.2380899533
 20
814.1991965099
 10
1388.1228567513
 20
820.2603334487
 10
1387.25339014
 20
826.5116782974
 10
1386.6312359993
 20
832.9421163929
 10
1386.2575004966
 20
839.540214651
 10
1386.1328481199
 20
846.2942418938
  0
LWPOLYLINE
  5
8A
330
1F
100
AcDbEntity
  8
0
  6
Continuous
 62
     7
370
    25
100
AcDbPolyline
 90
       61
 70
   128
 43
0.0
 10
998.1433572828
 20
622.2434069823
 10
1004.5530267233
 20
618.6865900655
 10
1011.2011024684
 20
615.2787331859
 10
1018.077204337
 20
612.0251573073
 10
1025.1705961122
 20
608.9309425023
 10
1032.4702023049
 20
606.0009200201
 10
1039.9646254465
 20
603.2396647429
 10
1047.6421638848
 20
600.651488043
 10
1055.490830055
 20
598.2404310512
 10
1063.4983691966
 20
596.0102583467
 10
1071.6522784878
 20
593.9644520795
 10
1079.9398265671
 20
592.1062065331
 10
1088.3480734119
 20
590.4384231375
 10
1096.863890543
 20
588.9637059384
 10
1105.4739815228
 20
587.6843575317
 10
1114.1649027163
 20
586.602375468
 10
1122.9230842818
 20
585.7194491339
 10
1131.7348513583
 20
585.0369571141
 10
1140.5864454176
 20
584.5559650388
 10
1149.4640457464
 20
584.27722392
 10
1158.3537910255
 20
584.201168979
 10
1167.241800973
 20
584.3279189664
 10
1176.1141980164
 20
584.6572759773
 10
1184.957128961
 20
585.1887257597
 10
1193.7567866197
 20
585.9214385179
 10
1202.4994313718
 20
586.854270208
 10
1211.1714126153
 20
587.9857643238
 10
1219.7591900809
 20
589.3141541719
 10
1228.2493549735
 20
590.8373656289
 10
1236.6286509084
 20
592.5530203811
 10
1244.8839946099
 20
594.4584396373
 10
1253.0024963385
 20
596.5506483115
 10
1260.9714800177
 20
598.8263796681
 10
1268.7785030253
 20
601.2820804228
 10
1276.4113756217
 20
603.9139162904
 10
1283.8581799825
 20
606.7177779717
 10
1291.1072888065
 20
609.6892875693
 10
1298.1473834709
 20
612.8238054239
 10
1304.9674717036
 20
616.1164373579
 10
1311.5569047464
 20
619.5620423173
 10
1317.9053939818
 20
623.1552403991
 10
1324.0030269974
 20
626.890421251
 10
1329.8402830632
 20
630.7617528315
 10
1335.4080479968
 20
634.7631905158
 10
1340.697628394
 20
638.8884865341
 10
1345.7007652031
 20
643.1311997263
 10
1350.4096466199
 20
647.4847055993
 10
1354.8169202849
 20
651.9422066706
 10
1358.9157047635
 20
656.4967430814
 10
1362.6996002903
 20
661.1412034637
 10
1366.1626987617
 20
665.868336044
 10
1369.2995929604
 20
670.6707599659
 10
1372.1053849985
 20
675.5409768145
 10
1374.5756939649
 20
680.4713823243
 10
1376.7066627652
 20
685.4542782525
 10
1378.4949641448
 20
690.4818843984
 10
1379.9378058833
 20
695.546350752
 10
1381.0329351545
 20
700.6397697502
 10
1381.7786420442
 20
705.7541886239
 10
1382.1737622195
 20
710.8816218151
 10
1382.2423830498
 20
714.0893195624
  0
LWPOLYLINE
  5
8B
330
1F
100
AcDbEntity
  8
0
  6
Continuous
 62
     7
370
    25
100
AcDbPolyline
 90
       21
 70
   128
 43
0.0
 10
932.2423830498
 20
714.0893195624
 10
932.3768733139
 20
709.5989810167
 10
932.8597194111
 20
704.4740514341
 10
933.6929124018
 20
699.3641349512
 10
934.875151354
 20
694.2772100962
 10
936.4045903419
 20
689.2212194983
 10
938.278841328
 20
684.2040574865
 10
940.4949778921
 20
679.233557764
 10
943.0495397998
 20
674.3174811758
 10
945.9385384061
 20
669.4635035921
 10
949.1574628824
 20
664.6792039226
 10
952.7012872605
 20
659.9720522834
 10
956.5644782791
 20
655.3493983329
 10
960.7410040242
 20
650.8184597965
 10
965.2243433464
 20
646.386311197
 10
970.0074960438
 20
642.0598728082
 10
975.0829937911
 20
637.8458998501
 10
980.4429118011
 20
633.7509719413
 10
986.0788811981
 20
629.7814828255
 10
991.9821020849
 20
625.9436303889
 10
998.1433572828
 20
622.2434069823
  0
LWPOLYLINE
  5
8C
330
1F
100
AcDbEntity
  8
0
  6
Continuous
 62
     1
370
    25
100
AcDbPolyline
 90
       82
 70
   128
 43
0.0
 10
1428.8322662383
 20
1243.3387048224
 10
1427.1619989377
 20
1244.2747163048
 10
1422.5656175116
 20
1246.5740904008
 10
1417.8033795933
 20
1248.5641605155
 10
1412.8827208518
 20
1250.2418193907
 10
1407.8113243117
 20
1251.6044475611
 10
1402.5971083567
 20
1252.6499174447
 10
1397.2482143661
 20
1253.3765966642
 10
1391.7729940028
 20
1253.7833505965
 10
1386.1799961735
 20
1253.8695441434
 10
1380.4779536803
 20
1253.6350427239
 10
1374.6757695859
 20
1253.0802124844
 10
1368.7825033118
 20
1252.2059197261
 10
1362.8073564938
 20
1251.0135295537
 10
1356.7596586143
 20
1249.5049037426
 10
1350.6488524357
 20
1247.6823978332
 10
1344.4844792564
 20
1245.5488574519
 10
1338.2761640135
 20
1243.1076138689
 10
1332.0336002541
 20
1240.3624787961
 10
1325.7665350005
 20
1237.3177384362
 10
1319.4847535312
 20
1233.9781467898
 10
1313.1980641023
 20
1230.3489182328
 10
1306.9162826331
 20
1226.4357193748
 10
1300.6492173795
 20
1222.2446602112
 10
1294.4066536201
 20
1217.7822845836
 10
1288.1983383771
 20
1213.0555599616
 10
1282.0339651979
 20
1208.0718665646
 10
1275.9231590193
 20
1202.8389858384
 10
1269.8754611398
 20
1197.365088305
 10
1263.9003143218
 20
1191.6587208056
 10
1258.0070480477
 20
1185.7287931556
 10
1252.2048639532
 20
1179.5845642332
 10
1246.5028214601
 20
1173.2356275225
 10
1240.9098236308
 20
1166.6918961345
 10
1235.4346032675
 20
1159.9635873289
 10
1230.0857092768
 20
1153.0612065612
 10
1224.8714933219
 20
1145.9955310797
 10
1219.8000967818
 20
1138.7775930979
 10
1214.8794380403
 20
1131.4186625691
 10
1210.1172001219
 20
1123.9302295897
 10
1205.5208186959
 20
1116.323986459
 10
1201.0974704661
 20
1108.6118094227
 10
1196.8540619658
 20
1100.8057401297
 10
1192.7972187735
 20
1092.9179668306
 10
1188.9332751685
 20
1084.9608053471
 10
1185.2682642399
 20
1076.9466798422
 10
1181.8079084672
 20
1068.8881034216
 10
1178.5576107852
 20
1060.7976585957
 10
1175.522446148
 20
1052.6879776339
 10
1172.7071536047
 20
1044.5717228401
 10
1170.1161289005
 20
1036.4615667828
 10
1167.753417613
 20
1028.370172508
 10
1165.6227088352
 20
1020.3101737674
 10
1163.7273294161
 20
1012.294155292
 10
1162.0702387656
 20
1004.3346331434
 10
1160.654024234
 20
996.4440351704
 10
1159.4808970722
 20
988.634681605
 10
1158.5526889791
 20
980.918765826
 10
1157.8708492414
 20
973.3083353198
 10
1157.4364424708
 20
965.8152728702
 10
1157.250146942
 20
958.4512780048
 10
1157.3122535334
 20
951.2278487275
 10
1157.6226652729
 20
944.1562635654
 10
1158.1808974893
 20
937.2475639596
 10
1158.9860785694
 20
930.5125370241
 10
1160.0369513185
 20
923.9616987042
 10
1161.3318749236
 20
917.6052773562
 10
1162.868827515
 20
911.4531977776
 10
1164.6454093239
 20
905.5150657102
 10
1166.6588464285
 20
899.8001528424
 10
1168.905995086
 20
894.3173823322
 10
1171.3833466404
 20
889.075314875
 10
1174.0870330012
 20
884.0821353368
 10
1177.0128326834
 20
879.3456399748
 10
1180.1561773978
 20
874.8732242641
 10
1183.512159185
 20
870.6718713511
 10
1187.0755380776
 20
866.7481411495
 10
1190.8407502827
 20
863.1081600982
 10
1194.8019168682
 20
859.7576115957
 10
1198.9528529428
 20
856.7017271257
 10
1203.2870773125
 20
853.945278089
 10
1203.8505513952
 20
853.616716751
  0
LWPOLYLINE
  5
8D
330
1F
100
AcDbEntity
  8
0
  6
Continuous
 62
     1
370
    25
100
AcDbPolyline
 90
       51
 70
   128
 43
0.0
 10
932.2423830509
 20
956.6015386762
 10
932.3110038801
 20
953.3942429452
 10
932.7061240554
 20
948.266809754
 10
933.4518309451
 20
943.1523908803
 10
934.5469602163
 20
938.0589718821
 10
935.9898019548
 20
932.9945055285
 10
937.7781033344
 20
927.9668993825
 10
939.9090721348
 20
922.9840034544
 10
942.3793811011
 20
918.0535979446
 10
945.1851731393
 20
913.183381096
 10
948.3220673379
 20
908.3809571741
 10
951.7851658093
 20
903.6538245938
 10
955.5690613361
 20
899.0093642115
 10
959.6678458147
 20
894.4548278007
 10
964.0751194797
 20
889.9973267294
 10
968.7840008965
 20
885.6438208563
 10
973.7871377056
 20
881.4011076642
 10
979.0767181029
 20
877.2758116459
 10
984.6444830364
 20
873.2743739615
 10
990.4817391022
 20
869.4030423811
 10
996.5793721179
 20
865.6678615292
 10
1002.9278613532
 20
862.0746634474
 10
1009.517294396
 20
858.6290584879
 10
1016.3373826287
 20
855.336426554
 10
1023.3774772931
 20
852.2019086994
 10
1030.6265861171
 20
849.2303991017
 10
1038.0733904779
 20
846.4265374205
 10
1045.7062630743
 20
843.7947015529
 10
1053.5132860819
 20
841.3390007982
 10
1061.4822697611
 20
839.0632694415
 10
1069.6007714898
 20
836.9710607674
 10
1077.8561151912
 20
835.0656415112
 10
1086.2354111262
 20
833.349986759
 10
1094.7255760187
 20
831.8267753019
 10
1103.3133534843
 20
830.4983854539
 10
1111.9853347278
 20
829.366891338
 10
1120.7279794799
 20
828.434059648
 10
1129.5276371387
 20
827.7013468898
 10
1138.3705680832
 20
827.1698971073
 10
1147.2429651266
 20
826.8405400965
 10
1156.1309750741
 20
826.713790109
 10
1165.0207203532
 20
826.7898450501
 10
1173.898320682
 20
827.0685861688
 10
1182.7499147413
 20
827.5495782441
 10
1191.5616818179
 20
828.232070264
 10
1200.3198633833
 20
829.1149965981
 10
1209.0107845768
 20
830.1969786618
 10
1217.6208755566
 20
831.4763270685
 10
1226.1366926877
 20
832.9510442676
 10
1234.5449395326
 20
834.6188276632
 10
1236.1611356406
 20
834.9642134959
  0
LINE
  5
8E
330
1F
100
AcDbEntity
  8
0
  6
Continuous
 62
     7
370
    25
100
AcDbLine
 10
881.8799660353
 20
64.8514052174
 30
0.0
 11
881.8799660353
 21
-232.1485947826
 31
0.0
  0
LINE
  5
8F
330
1F
100
AcDbEntity
  8
0
  6
Continuous
 62
     7
370
    25
100
AcDbLine
 10
1331.8799660353
 20
-232.1485947826
 30
0.0
 11
1331.8799660353
 21
64.8514052174
 31
0.0
  0
LINE
  5
90
330
1F
100
AcDbEntity
  8
0
  6
Continuous
 62
     7
370
    25
100
AcDbLine
 10
1331.8799660353
 20
64.8514052174
 30
0.0
 11
1331.8799660353
 21
289.8514052174
 31
0.0
  0
LINE
  5
91
330
1F
100
AcDbEntity
  8
0
  6
Continuous
 62
     7
370
    25
100
AcDbLine
 10
881.8799660353
 20
289.8514052174
 30
0.0
 11
881.8799660353
 21
64.8514052174
 31
0.0
  0
LINE
  5
92
330
1F
100
AcDbEntity
  8
0
  6
Continuous
 62
     7
370
    25
100
AcDbLine
 10
881.8799660353
 20
-232.1485947826
 30
0.0
 11
1331.8799660353
 21
-232.1485947826
 31
0.0
  0
ARC
  5
93
330
1F
100
AcDbEntity
  8
0
  6
Continuous
 62
     7
370
    25
100
AcDbCircle
 10
1106.8799660353
 20
289.8514052174
 30
0.0
 40
225.0000000000002
100
AcDbArc
 50
0.0
 51
180.0
  0
LINE
  5
94
330
1F
100
AcDbEntity
  8
0
  6
Continuous
 62
     1
370
    25
100
AcDbLine
 10
881.8799660353
 20
64.8514052174
 30
0.0
 11
1331.8799660353
 21
64.8514052174
 31
0.0
  0
INSERT
  5
A0
330
1F
100
AcDbEntity
  8
FORMAT
 62
     7
100
AcDbBlockReference
  2
SW_CENTERMARKSYMBOL_0
 10
1106.8799660353
 20
289.8514052174
 30
0.0
  0
LINE
  5
A1
330
1F
100
AcDbEntity
  8
0
  6
Continuous
 62
     7
370
    25
100
AcDbLine
 10
-936.7799327152
 20
289.8514052174
 30
0.0
 11
-936.7799327152
 21
64.8514052174
 31
0.0
  0
LINE
  5
A2
330
1F
100
AcDbEntity
  8
0
  6
Continuous
 62
     7
370
    25
100
AcDbLine
 10
-486.7799327152
 20
64.8514052174
 30
0.0
 11
-486.7799327152
 21
289.8514052174
 31
0.0
  0
LINE
  5
A3
330
1F
100
AcDbEntity
  8
0
  6
Continuous
 62
     7
370
    25
100
AcDbLine
 10
-936.7799327152
 20
64.8514052174
 30
0.0
 11
-936.7799327152
 21
-232.1485947826
 31
0.0
  0
LINE
  5
A4
330
1F
100
AcDbEntity
  8
0
  6
Continuous
 62
     7
370
    25
100
AcDbLine
 10
-486.7799327152
 20
-232.1485947826
 30
0.0
 11
-486.7799327152
 21
64.8514052174
 31
0.0
  0
CIRCLE
  5
A5
330
1F
100
AcDbEntity
  8
0
  6
Continuous
 62
     7
370
    25
100
AcDbCircle
 10
-711.7799327152
 20
289.8514052174
 30
0.0
 40
225.0
  0
CIRCLE
  5
A6
330
1F
100
AcDbEntity
  8
0
  6
Continuous
 62
     7
370
    25
100
AcDbCircle
 10
-711.7799327152
 20
289.8514052174
 30
0.0
 40
198.3000000000001
  0
LINE
  5
A7
330
1F
100
AcDbEntity
  8
0
  6
Continuous
 62
     7
370
    25
100
AcDbLine
 10
-936.7799327152
 20
-232.1485947826
 30
0.0
 11
-486.7799327152
 21
-232.1485947826
 31
0.0
  0
LINE
  5
A8
330
1F
100
AcDbEntity
  8
0
  6
Continuous
 62
     1
370
    25
100
AcDbLine
 10
-711.7799327152
 20
64.8514052174
 30
0.0
 11
-486.7799327152
 21
64.8514052174
 31
0.0
  0
LINE
  5
A9
330
1F
100
AcDbEntity
  8
0
  6
Continuous
 62
     1
370
    25
100
AcDbLine
 10
-936.7799327152
 20
64.8514052174
 30
0.0
 11
-711.7799327152
 21
64.8514052174
 31
0.0
  0
INSERT
  5
B5
330
1F
100
AcDbEntity
  8
FORMAT
 62
     7
100
AcDbBlockReference
  2
SW_CENTERMARKSYMBOL_1
 10
-711.7799327152
 20
289.8514052174
 30
0.0
  0
LINE
  5
B6
330
1F
100
AcDbEntity
  8
0
  6
Continuous
 62
     7
370
    25
100
AcDbLine
 10
532.4043653565
 20
1207.9315019833
 30
0.0
 11
235.4043653565
 21
1207.9315019833
 31
0.0
  0
LINE
  5
B7
330
1F
100
AcDbEntity
  8
0
  6
Continuous
 62
     7
370
    25
100
AcDbLine
 10
235.4043653565
 20
757.9315019833
 30
0.0
 11
532.4043653565
 21
757.9315019833
 31
0.0
  0
LINE
  5
B8
330
1F
100
AcDbEntity
  8
0
  6
Continuous
 62
     7
370
    25
100
AcDbLine
 10
235.4043653565
 20
1207.9315019833
 30
0.0
 11
10.4043653565
 21
1207.9315019833
 31
0.0
  0
LINE
  5
B9
330
1F
100
AcDbEntity
  8
0
  6
Continuous
 62
     7
370
    25
100
AcDbLine
 10
10.4043653565
 20
757.9315019833
 30
0.0
 11
235.4043653565
 21
757.9315019833
 31
0.0
  0
CIRCLE
  5
BA
330
1F
100
AcDbEntity
  8
0
  6
Continuous
 62
     7
370
    25
100
AcDbCircle
 10
10.4043653565
 20
982.9315019833
 30
0.0
 40
198.3
  0
CIRCLE
  5
BB
330
1F
100
AcDbEntity
  8
0
  6
Continuous
 62
     7
370
    25
100
AcDbCircle
 10
10.4043653565
 20
982.9315019833
 30
0.0
 40
225.0
  0
LINE
  5
BC
330
1F
100
AcDbEntity
  8
0
  6
Continuous
 62
     7
370
    25
100
AcDbLine
 10
532.4043653565
 20
1207.9315019833
 30
0.0
 11
532.4043653565
 21
757.9315019833
 31
0.0
  0
LINE
  5
BD
330
1F
100
AcDbEntity
  8
0
  6
Continuous
 62
     1
370
    25
100
AcDbLine
 10
235.4043653565
 20
982.9315019833
 30
0.0
 11
235.4043653565
 21
757.9315019833
 31
0.0
  0
LINE
  5
BE
330
1F
100
AcDbEntity
  8
0
  6
Continuous
 62
     1
370
    25
100
AcDbLine
 10
235.4043653565
 20
1207.9315019833
 30
0.0
 11
235.4043653565
 21
982.9315019833
 31
0.0
  0
INSERT
  5
CA
330
1F
100
AcDbEntity
  8
FORMAT
 62
     7
100
AcDbBlockReference
  2
SW_CENTERMARKSYMBOL_2
 10
10.4043653565
 20
982.9315019833
 30
0.0
  0
LINE
  5
CB
330
1F
100
AcDbEntity
  8
0
  6
Continuous
 62
     7
370
    25
100
AcDbLine
 10
10.4043653565
 20
-818.4814520032
 30
0.0
 11
235.4043653565
 21
-818.4814520032
 31
0.0
  0
LINE
  5
CC
330
1F
100
AcDbEntity
  8
0
  6
Continuous
 62
     7
370
    25
100
AcDbLine
 10
235.4043653565
 20
-368.4814520032
 30
0.0
 11
10.4043653565
 21
-368.4814520032
 31
0.0
  0
LINE
  5
CD
330
1F
100
AcDbEntity
  8
0
  6
Continuous
 62
     7
370
    25
100
AcDbLine
 10
532.4043653565
 20
-368.4814520032
 30
0.0
 11
235.4043653565
 21
-368.4814520032
 31
0.0
  0
LINE
  5
CE
330
1F
100
AcDbEntity
  8
0
  6
Continuous
 62
     7
370
    25
100
AcDbLine
 10
235.4043653565
 20
-818.4814520032
 30
0.0
 11
532.4043653565
 21
-818.4814520032
 31
0.0
  0
ARC
  5
CF
330
1F
100
AcDbEntity
  8
0
  6
Continuous
 62
     7
370
    25
100
AcDbCircle
 10
10.4043653565
 20
-593.4814520032
 30
0.0
 40
225.0
100
AcDbArc
 50
90.0
 51
270.0
  0
LINE
  5
D0
330
1F
100
AcDbEntity
  8
0
  6
Continuous
 62
     7
370
    25
100
AcDbLine
 10
532.4043653565
 20
-368.4814520032
 30
0.0
 11
532.4043653565
 21
-818.4814520032
 31
0.0
  0
LINE
  5
D1
330
1F
100
AcDbEntity
  8
0
  6
Continuous
 62
     1
370
    25
100
AcDbLine
 10
235.4043653565
 20
-368.4814520032
 30
0.0
 11
235.4043653565
 21
-818.4814520032
 31
0.0
  0
INSERT
  5
DD
330
1F
100
AcDbEntity
  8
FORMAT
 62
     7
100
AcDbBlockReference
  2
SW_CENTERMARKSYMBOL_3
 10
10.4043653565
 20
-593.4814520032
 30
0.0
  0
LINE
  5
DE
330
1F
100
AcDbEntity
  8
0
  6
Continuous
 62
     7
370
    25
100
AcDbLine
 10
1161.6105839551
 20
-247.3136603223
 30
0.0
 11
951.5998699427
 21
-368.5502649279
 31
0.0
  0
LINE
  5
DF
330
1F
100
AcDbEntity
  8
0
  6
Continuous
 62
     7
370
    25
100
AcDbLine
 10
1176.5815847858
 20
-758.2722529992
 30
0.0
 11
1386.5922987982
 21
-637.0356483936
 31
0.0
  0
LINE
  5
E0
330
1F
100
AcDbEntity
  8
0
  6
Continuous
 62
     7
370
    25
100
AcDbLine
 10
679.9917015973
 20
-838.9788542179
 30
0.0
 11
679.9917015973
 21
-1081.491475348
 31
0.0
  0
LINE
  5
E1
330
1F
100
AcDbEntity
  8
0
  6
Continuous
 62
     7
370
    25
100
AcDbLine
 10
1129.9917015973
 20
-1081.491475348
 30
0.0
 11
1129.9917015973
 21
-838.9788542179
 31
0.0
  0
SPLINE
  5
E2
330
1F
100
AcDbEntity
  8
0
  6
Continuous
 62
     7
370
    25
100
AcDbSpline
210
0.0
220
0.0
230
1.0
 70
     8
 71
     3
 72
    55
 73
    51
 74
     0
 42
0.00000001
 43
0.00000001
 40
0.0
 40
0.0
 40
0.0
 40
0.0
 40
0.0135765321111733
 40
0.0344825398132022
 40
0.0554204556745161
 40
0.0764319585005579
 40
0.0975004154018337
 40
0.1186098412137962
 40
0.1397449939706361
 40
0.1608894229926767
 40
0.182029268406534
 40
0.2031544428079753
 40
0.2242567754526486
 40
0.2453300177896938
 40
0.2663697689544763
 40
0.287373349045362
 40
0.3083396395643274
 40
0.329268907494155
 40
0.350162625824822
 40
0.371023299647778
 40
0.3918543036359389
 40
0.4126597340193688
 40
0.4334442760906005
 40
0.4542130867711765
 40
0.4749716907407017
 40
0.4957258879582256
 40
0.5164816699877732
 40
0.5372445471133366
 40
0.5580192223392489
 40
0.5788118313566031
 40
0.59962842108936
 40
0.620474867796247
 40
0.6413567869427659
 40
0.6622794316851103
 40
0.6832475771128483
 40
0.7042653877915
 40
0.7253362668383222
 40
0.7464626858809467
 40
0.7676459969292361
 40
0.7888862295706242
 40
0.8101818800651793
 40
0.8315297028492209
 40
0.8529245194451592
 40
0.8743590643304796
 40
0.8958238911042559
 40
0.9173068928844105
 40
0.9387898128275128
 40
0.9602565350052482
 40
0.9816896277245751
 40
1.0
 40
1.0
 40
1.0
 40
1.0
 10
951.5998699427279
 20
-368.5502649279276
 30
0.0
 10
949.4576771025656
 20
-369.8014289697993
 30
0.0
 10
944.0167994694875
 20
-372.9792149856541
 30
0.0
 10
935.3855732048835
 20
-378.3253930453973
 30
0.0
 10
925.7205351787308
 20
-384.6363823743972
 30
0.0
 10
916.1667401253014
 20
-391.2263326998943
 30
0.0
 10
906.7237671215322
 20
-398.0867857674416
 30
0.0
 10
897.4027352964789
 20
-405.2096291293504
 30
0.0
 10
888.2135906103421
 20
-412.5842044090911
 30
0.0
 10
879.1659099843275
 20
-420.1998767995625
 30
0.0
 10
870.2682206477236
 20
-428.0458339047435
 30
0.0
 10
861.527716712159
 20
-436.1117697743201
 30
0.0
 10
852.9504239253456
 20
-444.3879042944422
 30
0.0
 10
844.5415403879267
 20
-452.8648630790357
 30
0.0
 10
836.3055184098364
 20
-461.533742115787
 30
0.0
 10
828.2461647463799
 20
-470.3861455321587
 30
0.0
 10
820.3667469829934
 20
-479.4141973330801
 30
0.0
 10
812.6700997233863
 20
-488.6105341419684
 30
0.0
 10
805.1587254393586
 20
-497.9682839732492
 30
0.0
 10
797.8348869081362
 20
-507.4810358480939
 30
0.0
 10
790.7006896426916
 20
-517.1428040390842
 30
0.0
 10
783.7581539041374
 20
-526.9479898195549
 30
0.0
 10
777.0092766959796
 20
-536.8913427016012
 30
0.0
 10
770.4560846542964
 20
-546.9679223797517
 30
0.0
 10
764.1006790226969
 20
-557.1730619577074
 30
0.0
 10
757.9452740022728
 20
-567.5023325169074
 30
0.0
 10
751.9922866337574
 20
-577.9514088164176
 30
0.0
 10
746.2444328127663
 20
-588.5158857209376
 30
0.0
 10
740.7045949420816
 20
-599.1914824860806
 30
0.0
 10
735.3757939055566
 20
-609.9741181249572
 30
0.0
 10
730.2611546321625
 20
-620.8600330758737
 30
0.0
 10
725.3640599434858
 20
-631.8455017147597
 30
0.0
 10
720.6881695105589
 20
-642.926784296923
 30
0.0
 10
716.2374369598357
 20
-654.1000717819994
 30
0.0
 10
712.0161245242656
 20
-665.3614219812882
 30
0.0
 10
708.0288142005746
 20
-676.7066856688407
 30
0.0
 10
704.2804139011965
 20
-688.1314216471956
 30
0.0
 10
700.7761566403481
 20
-699.630800360394
 30
0.0
 10
697.5215901449917
 20
-711.1994965929512
 30
0.0
 10
694.5225544695013
 20
-722.8315730653143
 30
0.0
 10
691.7851426457397
 20
-734.5203587034331
 30
0.0
 10
689.3156479722104
 20
-746.258326754528
 30
0.0
 10
687.120469962322
 20
-758.0369832602363
 30
0.0
 10
685.2060719897487
 20
-769.846767972341
 30
0.0
 10
683.5786483075227
 20
-781.6769257639139
 30
0.0
 10
682.2448767051399
 20
-793.5146690864976
 30
0.0
 10
681.208497463675
 20
-805.3462353962435
 30
0.0
 10
680.4816227564631
 20
-817.1560805250925
 30
0.0
 10
680.0627482514396
 20
-828.3691698364568
 30
0.0
 10
680.0141099469952
 20
-835.632524674795
 30
0.0
 10
679.991701597312
 20
-838.9788542179298
 30
0.0
  0
SPLINE
  5
E3
330
1F
100
AcDbEntity
  8
0
  6
Continuous
 62
     7
370
    25
100
AcDbSpline
210
0.0
220
0.0
230
1.0
 70
     8
 71
     3
 72
    48
 73
    44
 74
     0
 42
0.00000001
 43
0.00000001
 40
0.0
 40
0.0
 40
0.0
 40
0.0
 40
0.0067695447007038
 40
0.0338883904944163
 40
0.0603655011967393
 40
0.0863050497178934
 40
0.1118058081629015
 40
0.136960218405563
 40
0.1618535680944802
 40
0.1865632636757352
 40
0.2111582074513733
 40
0.2356982967651989
 40
0.2602340696978117
 40
0.2848063660557188
 40
0.3094356424935542
 40
0.3341471238821234
 40
0.3589569883495354
 40
0.3838730332262488
 40
0.4088954570055511
 40
0.434017807573724
 40
0.4592280725888624
 40
0.4845098858343918
 40
0.5098438233096052
 40
0.5352087642805401
 40
0.5605768037275358
 40
0.5859272064160034
 40
0.6112431079597515
 40
0.6365120726662088
 40
0.6617274109375694
 40
0.686889401790291
 40
0.7120063853720563
 40
0.7370956900857901
 40
0.7621843612512024
 40
0.7873096646279435
 40
0.8125055959509956
 40
0.8378250467944356
 40
0.8633325804175086
 40
0.8891024816593701
 40
0.9152181239088958
 40
0.941771187666366
 40
0.968860753589082
 40
0.9965922915188173
 40
1.0
 40
1.0
 40
1.0
 40
1.0
 10
1129.989882678278
 20
-839.1706661776738
 30
0.0
 10
1129.989690662012
 20
-839.1793530817688
 30
0.0
 10
1129.988729427173
 20
-839.2228397874745
 30
0.0
 10
1129.997532381661
 20
-839.0040307308633
 30
0.0
 10
1130.037707097683
 20
-838.5025888001533
 30
0.0
 10
1130.123947208798
 20
-837.6907321538755
 30
0.0
 10
1130.269273535101
 20
-836.6081368505933
 30
0.0
 10
1130.486579080594
 20
-835.2576843230266
 30
0.0
 10
1130.787475316404
 20
-833.6525254729947
 30
0.0
 10
1131.182589187376
 20
-831.8040309612317
 30
0.0
 10
1131.681430820225
 20
-829.7252006970613
 30
0.0
 10
1132.292326086793
 20
-827.4300198041101
 30
0.0
 10
1133.022289332271
 20
-824.9338672662451
 30
0.0
 10
1133.87675528912
 20
-822.2539928904793
 30
0.0
 10
1134.859507143956
 20
-819.4092082964721
 30
0.0
 10
1135.972552443114
 20
-816.4198196064576
 30
0.0
 10
1137.216221973892
 20
-813.3070539824498
 30
0.0
 10
1138.588885524512
 20
-810.0934819292175
 30
0.0
 10
1140.086860740179
 20
-806.8028535271042
 30
0.0
 10
1141.704357079975
 20
-803.4598729321611
 30
0.0
 10
1143.433461637936
 20
-800.0899178334926
 30
0.0
 10
1145.26417043892
 20
-796.7187150362865
 30
0.0
 10
1147.184466468124
 20
-793.3719849117565
 30
0.0
 10
1149.18027388106
 20
-790.0753484586711
 30
0.0
 10
1151.235760638069
 20
-786.8536579569123
 30
0.0
 10
1153.333600642698
 20
-783.7305414047767
 30
0.0
 10
1155.455433747534
 20
-780.7277788833092
 30
0.0
 10
1157.581992381979
 20
-777.8652460022057
 30
0.0
 10
1159.693357453578
 20
-775.1606954903407
 30
0.0
 10
1161.76923453891
 20
-772.6295601252906
 30
0.0
 10
1163.789214891828
 20
-770.2848188051242
 30
0.0
 10
1165.733008384397
 20
-768.1369293595715
 30
0.0
 10
1167.580633438668
 20
-766.1938296799656
 30
0.0
 10
1169.312245467368
 20
-764.4613138803752
 30
0.0
 10
1170.908515944898
 20
-762.9427732069607
 30
0.0
 10
1172.350857735586
 20
-761.6391966936578
 30
0.0
 10
1173.621413807578
 20
-760.5493179783017
 30
0.0
 10
1174.703704334951
 20
-759.6694777467674
 30
0.0
 10
1175.578924681587
 20
-758.9959980784042
 30
0.0
 10
1176.23930751494
 20
-758.5171860670856
 30
0.0
 10
1176.636149576661
 20
-758.2447749128954
 30
0.0
 10
1176.806018735923
 20
-758.1389699682186
 30
0.0
 10
1176.762850476054
 20
-758.1649449115049
 30
0.0
 10
1176.75812637826
 20
-758.167787466953
 30
0.0
  0
LWPOLYLINE
  5
E4
330
1F
100
AcDbEntity
  8
0
  6
Continuous
 62
     7
370
    25
100
AcDbPolyline
 90
      160
 70
   128
 43
0.0
 10
1115.0024156097
 20
-350.3287417779
 10
1115.126622731
 20
-357.6586649151
 10
1115.4990501601
 20
-365.1205497371
 10
1116.1191163959
 20
-372.7027453967
 10
1116.9858532785
 20
-380.3934131953
 10
1118.0979075012
 20
-388.1805450681
 10
1119.4535427233
 20
-396.0519823331
 10
1121.0506422814
 20
-403.9954346753
 10
1122.886712494
 20
-411.9984993369
 10
1124.9588865554
 20
-420.0486804825
 10
1127.263929012
 20
-428.1334087098
 10
1129.7982408134
 20
-436.2400606753
 10
1132.5578649327
 20
-444.3559788044
 10
1135.5384925444
 20
-452.4684910544
 10
1138.7354697523
 20
-460.5649307002
 10
1142.143804856
 20
-468.6326561126
 10
1145.7581761447
 20
-476.6590704961
 10
1149.5729402069
 20
-484.6316415573
 10
1153.5821407412
 20
-492.5379210729
 10
1157.779517857
 20
-500.365564326
 10
1162.1585178481
 20
-508.1023493809
 10
1166.7123034259
 20
-515.7361961661
 10
1171.4337643947
 20
-523.255185336
 10
1176.3155287537
 20
-530.6475768817
 10
1181.3499742074
 20
-537.9018284612
 10
1186.5292400669
 20
-545.0066134218
 10
1191.8452395232
 20
-551.9508384853
 10
1197.2896722743
 20
-558.7236610684
 10
1202.8540374848
 20
-565.3145062128
 10
1208.5296470589
 20
-571.7130830961
 10
1214.307639206
 20
-577.9094011
 10
1220.1789922772
 20
-583.8937854096
 10
1226.1345388517
 20
-589.6568921191
 10
1232.1649800504
 20
-595.1897228216
 10
1238.2609000554
 20
-600.4836386586
 10
1244.4127808111
 20
-605.5303738091
 10
1250.6110168861
 20
-610.3220483951
 10
1256.8459304704
 20
-614.8511807856
 10
1263.1077864866
 20
-619.1106992781
 10
1269.3868077899
 20
-623.09395314
 10
1275.6731904339
 20
-626.7947229932
 10
1281.9571189783
 20
-630.207230525
 10
1288.2287818147
 20
-633.3261475099
 10
1294.478386486
 20
-636.1466041293
 10
1300.6961749764
 20
-638.664196575
 10
1306.8724389472
 20
-640.8749939253
 10
1312.9975348955
 20
-642.7755442824
 10
1319.0618992111
 20
-644.3628801627
 10
1325.0560631088
 20
-645.6345231296
 10
1330.9706674134
 20
-646.5884876636
 10
1336.7964771723
 20
-647.2232842622
 10
1342.5243960752
 20
-647.5379217659
 10
1348.1454806566
 20
-647.5319089057
 10
1353.6509542602
 20
-647.2052550699
 10
1359.0322207425
 20
-646.5584702897
 10
1364.2808778948
 20
-645.5925644427
 10
1369.3887305619
 20
-644.3090456762
 10
1374.3478034382
 20
-642.7099180526
 10
1379.15035352
 20
-640.7976784196
 10
1383.7888821957
 20
-638.5753125125
 10
1388.2561469532
 20
-636.0462902919
 10
1392.5451726889
 20
-633.2145605257
 10
1396.6492625983
 20
-630.0845446239
 10
1400.5620086321
 20
-626.6611297346
 10
1404.277301502
 20
-622.9496611139
 10
1407.789340219
 20
-618.9559337795
 10
1411.0926411518
 20
-614.6861834624
 10
1414.1820465879
 20
-610.147076871
 10
1417.0527327875
 20
-605.3457012813
 10
1419.700217515
 20
-600.2895534714
 10
1422.1203670371
 20
-594.986528016
 10
1424.3094025777
 20
-589.4449049597
 10
1426.2639062177
 20
-583.6733368891
 10
1427.9808262315
 20
-577.6808354226
 10
1429.4574818525
 20
-571.47675714
 10
1430.6915674582
 20
-565.0707889729
 10
1431.6811561704
 20
-558.4729330803
 10
1432.4247028637
 20
-551.6934912309
 10
1432.9210465784
 20
-544.7430487184
 10
1433.1694123325
 20
-537.6324578337
 10
1433.1694123325
 20
-530.3728209204
 10
1432.9210465784
 20
-522.9754730398
 10
1432.4247028637
 20
-515.4519642724
 10
1431.6811561704
 20
-507.8140416842
 10
1430.6915674582
 20
-500.0736309845
 10
1429.4574818525
 20
-492.2428179058
 10
1427.9808262315
 20
-484.3338293332
 10
1426.2639062177
 20
-476.3590142134
 10
1424.3094025777
 20
-468.3308242737
 10
1422.1203670371
 20
-460.2617945795
 10
1419.700217515
 20
-452.164523963
 10
1417.0527327875
 20
-444.051655351
 10
1414.1820465879
 20
-435.9358560247
 10
1411.0926411518
 20
-427.8297978414
 10
1407.789340219
 20
-419.7461374488
 10
1404.277301502
 20
-411.6974965228
 10
1400.5620086321
 20
-403.696442061
 10
1396.6492625983
 20
-395.7554667601
 10
1392.5451726889
 20
-387.8869695103
 10
1388.2561469532
 20
-380.103236036
 10
1383.7888821957
 20
-372.4164197131
 10
1379.15035352
 20
-364.8385225928
 10
1374.3478034382
 20
-357.381376662
 10
1369.3887305619
 20
-350.0566253686
 10
1364.2808778948
 20
-342.8757054425
 10
1359.0322207425
 20
-335.8498290376
 10
1353.6509542602
 20
-328.989966226
 10
1348.1454806566
 20
-322.306827869
 10
1342.5243960752
 20
-315.8108488939
 10
1336.7964771723
 20
-309.5121720008
 10
1330.9706674134
 20
-303.4206318259
 10
1325.0560631088
 20
-297.545739586
 10
1319.0618992111
 20
-291.8966682281
 10
1312.9975348955
 20
-286.4822381065
 10
1306.8724389472
 20
-281.310903211
 10
1300.6961749764
 20
-276.3907379673
 10
1294.478386486
 20
-271.7294246293
 10
1288.2287818147
 20
-267.3342412845
 10
1281.9571189783
 20
-263.2120504898
 10
1275.6731904339
 20
-259.369288557
 10
1269.3868077899
 20
-255.8119555025
 10
1263.1077864866
 20
-252.5456056798
 10
1256.8459304703
 20
-249.5753391062
 10
1250.6110168861
 20
-246.9057935005
 10
1244.4127808111
 20
-244.5411370412
 10
1238.2609000554
 20
-242.4850618586
 10
1232.1649800504
 20
-240.7407782702
 10
1226.1345388517
 20
-239.3110097677
 10
1220.1789922772
 20
-238.1979887648
 10
1214.307639206
 20
-237.4034531117
 10
1208.5296470589
 20
-236.9286433816
 10
1202.8540374848
 20
-236.7743009335
 10
1197.2896722743
 20
-236.9406667547
 10
1191.8452395232
 20
-237.4274810849
 10
1186.5292400669
 20
-238.2339838211
 10
1181.3499742074
 20
-239.3589157052
 10
1176.3155287537
 20
-240.8005202895
 10
1171.4337643947
 20
-242.5565466796
 10
1166.7123034259
 20
-244.6242530488
 10
1162.1585178481
 20
-247.000410919
 10
1157.779517857
 20
-249.6813102017
 10
1153.5821407412
 20
-252.662764991
 10
1149.5729402069
 20
-255.9401200991
 10
1145.7581761447
 20
-259.5082583251
 10
1142.143804856
 20
-263.3616084447
 10
1138.7354697523
 20
-267.494153909
 10
1135.5384925444
 20
-271.8994422391
 10
1132.5578649327
 20
-276.5705950999
 10
1129.7982408134
 20
-281.5003190409
 10
1127.263929012
 20
-286.6809168834
 10
1124.9588865554
 20
-292.1042997386
 10
1122.886712494
 20
-297.7619996382
 10
1121.0506422814
 20
-303.6451827553
 10
1119.4535427233
 20
-309.7446631979
 10
1118.0979075012
 20
-316.0509173513
 10
1116.9858532785
 20
-322.5540987482
 10
1116.1191163959
 20
-329.2440534429
 10
1115.4990501601
 20
-336.1103358653
 10
1115.126622731
 20
-343.1422251304
 10
1115.0024156097
 20
-350.3287417779
  0
LWPOLYLINE
  5
E5
330
1F
100
AcDbEntity
  8
0
  6
Continuous
 62
     7
370
    25
100
AcDbPolyline
 90
      150
 70
   128
 43
0.0
 10
1133.8821666674
 20
-361.2277900707
 10
1134.0068190441
 20
-354.4737628279
 10
1134.3805545468
 20
-347.8756645698
 10
1135.0027086875
 20
-341.4452264743
 10
1135.8721752988
 20
-335.1938816256
 10
1136.9874085008
 20
-329.1327446868
 10
1138.3464254495
 20
-323.2725921382
 10
1139.9468098624
 20
-317.623843117
 10
1141.7857163145
 20
-312.1965408931
 10
1143.8598752971
 20
-307.0003350116
 10
1146.1655990313
 20
-302.044464137
 10
1148.6987880244
 20
-297.3377396268
 10
1151.4549383588
 20
-292.8885298654
 10
1154.4291496999
 20
-288.7047453856
 10
1157.6161340084
 20
-284.7938248033
 10
1161.0102249425
 20
-281.1627215926
 10
1164.6053879324
 20
-277.8178917226
 10
1168.3952309094
 20
-274.7652821787
 10
1172.3730156712
 20
-272.0103203892
 10
1176.5316698614
 20
-269.5579045757
 10
1180.8637995448
 20
-267.4123950441
 10
1185.3617023529
 20
-265.5776064319
 10
1190.0173811785
 20
-264.0568009263
 10
1194.8225583947
 20
-262.8526824642
 10
1199.7686905718
 20
-261.967391924
 10
1204.8469836671
 20
-261.4025033201
 10
1210.0484086609
 20
-261.1590210039
 10
1215.3637176094
 20
-261.2373778779
 10
1220.7834600873
 20
-261.6374346266
 10
1226.2979999901
 20
-262.3584799637
 10
1231.8975326673
 20
-263.3992318967
 10
1237.572102354
 20
-264.7578400069
 10
1243.3116198724
 20
-266.4318887385
 10
1249.1058805698
 20
-268.418401694
 10
1254.9445824622
 20
-270.7138469258
 10
1260.8173445506
 20
-273.3141432162
 10
1266.7137252785
 20
-276.2146673331
 10
1272.6232410959
 20
-279.4102622505
 10
1278.5353850995
 20
-282.8952463174
 10
1284.439645713
 20
-286.6634233592
 10
1290.3255253764
 20
-290.7080936946
 10
1296.1825592105
 20
-295.0220660474
 10
1302.000333623
 20
-299.5976703322
 10
1307.7685048231
 20
-304.4267712915
 10
1313.476817213
 20
-309.5007829601
 10
1319.1151216217
 20
-314.8106839304
 10
1324.6733933495
 20
-320.3470333922
 10
1330.1417499923
 20
-326.0999879182
 10
1335.5104690114
 20
-332.0593189652
 10
1340.7700050204
 20
-338.2144310601
 10
1345.9110067561
 20
-344.5543806382
 10
1350.9243337052
 20
-351.0678955005
 10
1355.8010723552
 20
-357.7433948554
 10
1360.5325520428
 20
-364.5690099084
 10
1365.1103603697
 20
-371.5326049653
 10
1369.5263581599
 20
-378.621799008
 10
1373.7726939304
 20
-385.8239877083
 10
1377.8418178511
 20
-393.1263658375
 10
1381.7264951683
 20
-400.5159500337
 10
1385.4198190674
 20
-407.979601886
 10
1388.9152229533
 20
-415.5040512937
 10
1392.2064921254
 20
-423.0759200604
 10
1395.2877748273
 20
-430.6817456797
 10
1398.1535926508
 20
-438.3080052711
 10
1400.7988502764
 20
-445.9411396236
 10
1403.2188445325
 20
-453.5675773027
 10
1405.4092727577
 20
-461.1737587806
 10
1407.3662404506
 20
-468.7461605442
 10
1409.0862681938
 20
-476.2713191394
 10
1410.5662978411
 20
-483.7358551089
 10
1411.8036979535
 20
-491.1264967802
 10
1412.7962684789
 20
-498.4301038621
 10
1413.5422446631
 20
-505.6336908077
 10
1414.0403001877
 20
-512.7244499022
 10
1414.2895495281
 20
-519.6897740349
 10
1414.2895495281
 20
-526.5172791136
 10
1414.0403001877
 20
-533.1948260833
 10
1413.5422446631
 20
-539.7105425093
 10
1412.7962684789
 20
-546.0528436856
 10
1411.8036979535
 20
-552.2104532321
 10
1410.5662978411
 20
-558.1724231437
 10
1409.0862681938
 20
-563.9281532555
 10
1407.3662404506
 20
-569.4674100894
 10
1405.4092727577
 20
-574.780345049
 10
1403.2188445325
 20
-579.8575119296
 10
1400.7988502764
 20
-584.689883714
 10
1398.1535926508
 20
-589.2688686214
 10
1395.2877748273
 20
-593.5863253837
 10
1392.2064921254
 20
-597.6345777204
 10
1388.9152229533
 20
-601.4064279866
 10
1385.4198190674
 20
-604.8951699701
 10
1381.7264951683
 20
-608.094600815
 10
1377.8418178511
 20
-610.99903205
 10
1373.7726939304
 20
-613.6032997024
 10
1369.5263581599
 20
-615.9027734793
 10
1365.1103603697
 20
-617.8933650003
 10
1360.5325520428
 20
-619.5715350663
 10
1355.8010723552
 20
-620.9342999521
 10
1350.9243337052
 20
-621.9792367115
 10
1345.9110067561
 20
-622.7044874851
 10
1340.7700050204
 20
-623.1087628035
 10
1335.5104690114
 20
-623.1913438799
 10
1330.1417499923
 20
-622.9520838882
 10
1324.6733933495
 20
-622.3914082238
 10
1319.1151216217
 20
-621.5103137478
 10
1313.476817213
 20
-620.3103670139
 10
1307.7685048231
 20
-618.7937014835
 10
1302.000333623
 20
-616.9630137328
 10
1296.1825592105
 20
-614.8215586576
 10
1290.3255253764
 20
-612.3731436869
 10
1284.439645713
 20
-609.6221220133
 10
1278.5353850995
 20
-606.5733848529
 10
1272.6232410959
 20
-603.2323527491
 10
1266.7137252785
 20
-599.604965935
 10
1260.8173445506
 20
-595.697673772
 10
1254.9445824622
 20
-591.517423283
 10
1249.1058805698
 20
-587.0716468008
 10
1243.3116198724
 20
-582.3682487538
 10
1237.572102354
 20
-577.4155916121
 10
1231.8975326673
 20
-572.2224810193
 10
1226.2979999901
 20
-566.7981501364
 10
1220.7834600873
 20
-561.152243226
 10
1215.3637176094
 20
-555.2947985045
 10
1210.0484086609
 20
-549.2362302947
 10
1204.8469836671
 20
-542.9873105099
 10
1199.7686905717
 20
-536.5591495014
 10
1194.8225583947
 20
-529.963176305
 10
1190.0173811785
 20
-523.2111183201
 10
1185.3617023529
 20
-516.3149804597
 10
1180.8637995448
 20
-509.287023805
 10
1176.5316698614
 20
-502.1397438065
 10
1172.3730156712
 20
-494.8858480674
 10
1168.3952309094
 20
-487.5382337494
 10
1164.6053879324
 20
-480.1099646427
 10
1161.0102249425
 20
-472.6142479387
 10
1157.6161340084
 20
-465.0644107481
 10
1154.4291496999
 20
-457.473876406
 10
1151.4549383588
 20
-449.8561406054
 10
1148.6987880244
 20
-442.2247474026
 10
1146.1655990313
 20
-434.5932651362
 10
1143.8598752971
 20
-426.9752623031
 10
1141.7857163144
 20
-419.3842834345
 10
1139.9468098624
 20
-411.8338250136
 10
1138.3464254495
 20
-404.3373114801
 10
1136.9874085008
 20
-396.9080713615
 10
1135.8721752988
 20
-389.5593135755
 10
1135.0027086875
 20
-382.3041039453
 10
1134.3805545468
 20
-375.1553419689
 10
1134.0068190441
 20
-368.1257378842
 10
1133.8821666674
 20
-361.2277900707
  0
LWPOLYLINE
  5
E6
330
1F
100
AcDbEntity
  8
0
  6
Continuous
 62
     7
370
    25
100
AcDbPolyline
 90
      160
 70
   128
 43
0.0
 10
745.8926758303
 20
-989.6455627679
 10
752.3023452708
 20
-986.0887458511
 10
758.9504210159
 20
-982.6808889715
 10
765.8265228845
 20
-979.4273130929
 10
772.9199146597
 20
-976.3330982879
 10
780.2195208524
 20
-973.4030758057
 10
787.713943994
 20
-970.6418205285
 10
795.3914824323
 20
-968.0536438286
 10
803.2401486025
 20
-965.6425868368
 10
811.2476877441
 20
-963.4124141323
 10
819.4015970353
 20
-961.3666078651
 10
827.6891451146
 20
-959.5083623187
 10
836.0973919594
 20
-957.8405789231
 10
844.6132090905
 20
-956.365861724
 10
853.2233000703
 20
-955.0865133173
 10
861.9142212638
 20
-954.0045312536
 10
870.6724028293
 20
-953.1216049195
 10
879.4841699058
 20
-952.4391128997
 10
888.3357639651
 20
-951.9581208244
 10
897.2133642939
 20
-951.6793797056
 10
906.103109573
 20
-951.6033247646
 10
914.9911195205
 20
-951.730074752
 10
923.8635165639
 20
-952.0594317629
 10
932.7064475085
 20
-952.5908815453
 10
941.5061051672
 20
-953.3235943035
 10
950.2487499193
 20
-954.2564259936
 10
958.9207311628
 20
-955.3879201095
 10
967.5085086284
 20
-956.7163099575
 10
975.998673521
 20
-958.2395214145
 10
984.3779694559
 20
-959.9551761667
 10
992.6333131574
 20
-961.8605954229
 10
1000.751814886
 20
-963.9528040971
 10
1008.7207985652
 20
-966.2285354537
 10
1016.5278215728
 20
-968.6842362084
 10
1024.1606941693
 20
-971.3160720761
 10
1031.60749853
 20
-974.1199337573
 10
1038.856607354
 20
-977.0914433549
 10
1045.8967020184
 20
-980.2259612095
 10
1052.7167902511
 20
-983.5185931435
 10
1059.3062232939
 20
-986.9641981029
 10
1065.6547125293
 20
-990.5573961847
 10
1071.7523455449
 20
-994.2925770366
 10
1077.5896016107
 20
-998.1639086171
 10
1083.1573665443
 20
-1002.1653463014
 10
1088.4469469415
 20
-1006.2906423197
 10
1093.4500837506
 20
-1010.5333555119
 10
1098.1589651674
 20
-1014.8868613849
 10
1102.5662388324
 20
-1019.3443624562
 10
1106.665023311
 20
-1023.898898867
 10
1110.4489188378
 20
-1028.5433592494
 10
1113.9120173092
 20
-1033.2704918296
 10
1117.0489115079
 20
-1038.0729157515
 10
1119.854703546
 20
-1042.9431326001
 10
1122.3250125124
 20
-1047.8735381099
 10
1124.4559813127
 20
-1052.8564340381
 10
1126.2442826923
 20
-1057.884040184
 10
1127.6871244308
 20
-1062.9485065376
 10
1128.782253702
 20
-1068.0419255358
 10
1129.5279605917
 20
-1073.1563444095
 10
1129.923080767
 20
-1078.2837776007
 10
1129.9669972947
 20
-1083.4162192312
 10
1129.6596416043
 20
-1088.5456556025
 10
1129.0014935954
 20
-1093.6640777088
 10
1127.9935808877
 20
-1098.7634937415
 10
1126.6374772175
 20
-1103.8359415678
 10
1124.9352999796
 20
-1108.8735011625
 10
1122.8897069217
 20
-1113.8683069743
 10
1120.5038919945
 20
-1118.8125602069
 10
1117.7815803648
 20
-1123.6985409958
 10
1114.7270225991
 20
-1128.518620462
 10
1111.3449880268
 20
-1133.2652726235
 10
1107.6407572933
 20
-1137.9310861465
 10
1103.6201141153
 20
-1142.508775917
 10
1099.2893362497
 20
-1146.9911944159
 10
1094.6551856921
 20
-1151.3713428787
 10
1089.7248981185
 20
-1155.6423822236
 10
1084.5061715877
 20
-1159.7976437297
 10
1079.0071545216
 20
-1163.8306394493
 10
1073.2364329827
 20
-1167.7350723385
 10
1067.2030172676
 20
-1171.5048460887
 10
1060.9163278387
 20
-1175.1340746457
 10
1054.3861806153
 20
-1178.6170913999
 10
1047.6227716471
 20
-1181.9484580342
 10
1040.6366611943
 20
-1185.122973015
 10
1033.4387572392
 20
-1188.135679714
 10
1026.0402984542
 20
-1190.9818741472
 10
1018.4528366546
 20
-1193.6571123201
 10
1010.6882187613
 20
-1196.1572171657
 10
1002.7585683033
 20
-1198.478285067
 10
994.6762664886
 20
-1200.6166919522
 10
986.453932872
 20
-1202.5690989527
 10
978.1044056515
 20
-1204.3324576167
 10
969.6407216225
 20
-1205.9040146689
 10
961.0760958231
 20
-1207.2813163097
 10
952.4239008997
 20
-1208.462212046
 10
943.6976462277
 20
-1209.4448580492
 10
934.9109568177
 20
-1210.2277200343
 10
926.0775520424
 20
-1210.8095756553
 10
917.2112242147
 20
-1211.1895164136
 10
908.3258170529
 20
-1211.3669490769
 10
899.4352040656
 20
-1211.3415966051
 10
890.5532668896
 20
-1211.1134985831
 10
881.6938736155
 20
-1210.6830111589
 10
872.8708571342
 20
-1210.0508064875
 10
864.0979935385
 20
-1209.2178716814
 10
855.3889806136
 20
-1208.1855072694
 10
846.7574164492
 20
-1206.9553251661
 10
838.2167782084
 20
-1205.5292461548
 10
829.7804010837
 20
-1203.9094968885
 10
821.4614574767
 20
-1202.0986064135
 10
813.2729364302
 20
-1200.0994022202
 10
805.2276233478
 20
-1197.9150058288
 10
797.338080031
 20
-1195.5488279148
 10
789.6166250649
 20
-1193.0045629842
 10
782.075314585
 20
-1190.2861836046
 10
774.7259234524
 20
-1187.3979342029
 10
767.5799268689
 20
-1184.3443244374
 10
760.6484824599
 20
-1181.1301221575
 10
753.9424128529
 20
-1177.7603459584
 10
747.4721887798
 20
-1174.2402573457
 10
741.2479127271
 20
-1170.5753525198
 10
735.2793031633
 20
-1166.7713537946
 10
729.5756793635
 20
-1162.8342006625
 10
724.1459468593
 20
-1158.7700405208
 10
718.9985835335
 20
-1154.5852190731
 10
714.1416263828
 20
-1150.2862704214
 10
709.5826589693
 20
-1145.8799068636
 10
705.3287995794
 20
-1141.3730084133
 10
701.3866901095
 20
-1136.7726120575
 10
697.7624856958
 20
-1132.085900769
 10
694.4618451031
 20
-1127.3201922911
 10
691.4899218899
 20
-1122.4829277119
 10
688.8513563615
 20
-1117.5816598459
 10
686.5502683249
 20
-1112.6240414409
 10
684.5902506557
 20
-1107.6178132296
 10
682.9743636889
 20
-1102.570791843
 10
681.7051304402
 20
-1097.4908576061
 10
680.7845326667
 20
-1092.385942233
 10
680.2140077725
 20
-1087.2640164431
 10
679.9944465645
 20
-1082.1330775155
 10
680.1261918614
 20
-1077.0011368023
 10
680.6090379586
 20
-1071.8762072197
 10
681.4422309493
 20
-1066.7662907368
 10
682.6244699015
 20
-1061.6793658818
 10
684.1539088894
 20
-1056.6233752839
 10
686.0281598755
 20
-1051.6062132722
 10
688.2442964396
 20
-1046.6357135496
 10
690.7988583473
 20
-1041.7196369614
 10
693.6878569536
 20
-1036.8656593777
 10
696.9067814299
 20
-1032.0813597082
 10
700.450605808
 20
-1027.374208069
 10
704.3137968266
 20
-1022.7515541185
 10
708.4903225717
 20
-1018.2206155822
 10
712.9736618939
 20
-1013.7884669826
 10
717.7568145913
 20
-1009.4620285938
 10
722.8323123386
 20
-1005.2480556358
 10
728.1922303486
 20
-1001.1531277269
 10
733.8281997456
 20
-997.1836386111
 10
739.7314206324
 20
-993.3457861745
 10
745.8926758303
 20
-989.6455627679
  0
LWPOLYLINE
  5
E7
330
1F
100
AcDbEntity
  8
0
  6
Continuous
 62
     7
370
    25
100
AcDbPolyline
 90
      150
 70
   128
 43
0.0
 10
764.772426888
 20
-1000.5446110608
 10
758.9859208766
 20
-1004.0290104478
 10
753.4590078151
 20
-1007.6511352706
 10
748.2015143532
 20
-1011.4045455234
 10
743.2227881225
 20
-1015.2825677797
 10
738.5316811166
 20
-1019.2783070575
 10
734.1365339524
 20
-1023.3846590782
 10
730.0451610413
 20
-1027.5943228977
 10
726.264836695
 20
-1031.8998138874
 10
722.8022821922
 20
-1036.2934770415
 10
719.6636538285
 20
-1040.7675005871
 10
716.8545319705
 20
-1045.3139298737
 10
714.3799111344
 20
-1049.9246815159
 10
712.2441911057
 20
-1054.5915577656
 10
710.4511691168
 20
-1059.3062610871
 10
709.0040330953
 20
-1064.06040891
 10
707.9053559962
 20
-1068.8455485329
 10
707.1570912272
 20
-1073.6531721521
 10
706.760569176
 20
-1078.4747319884
 10
706.7164948441
 20
-1083.3016554843
 10
707.0249465942
 20
-1088.125360546
 10
707.6853760103
 20
-1092.9372708019
 10
708.696608873
 20
-1097.7288308511
 10
710.0568472471
 20
-1102.4915214748
 10
711.7636726785
 20
-1107.2168747829
 10
713.8140504939
 20
-1111.8964892696
 10
716.2043351963
 20
-1116.5220447511
 10
718.9302769467
 20
-1121.0853171585
 10
721.9870291202
 20
-1125.5781931601
 10
725.369156923
 20
-1129.9926845863
 10
729.0706470552
 20
-1134.3209426325
 10
733.0849184025
 20
-1138.5552718137
 10
737.404833737
 20
-1142.6881436472
 10
742.0227124068
 20
-1146.7122100377
 10
746.9303439921
 20
-1150.6203163421
 10
752.1190029031
 20
-1154.4055140899
 10
757.5794638936
 20
-1158.0610733376
 10
763.3020184632
 20
-1161.5804946344
 10
769.2764921187
 20
-1164.9575205776
 10
775.4922624641
 20
-1168.1861469383
 10
781.9382780864
 20
-1171.2606333366
 10
788.6030782051
 20
-1174.175513448
 10
795.4748130488
 20
-1176.925604722
 10
802.5412649238
 20
-1179.5060175966
 10
809.7898699365
 20
-1181.912164192
 10
817.2077403316
 20
-1184.1397664672
 10
824.7816874064
 20
-1186.1848638268
 10
832.4982449593
 20
-1188.0438201623
 10
840.3436932326
 20
-1189.713330317
 10
848.3040833056
 20
-1191.190425963
 10
856.3652618952
 20
-1192.472480878
 10
864.51289652
 20
-1193.5572156153
 10
872.7325009831
 20
-1194.4427015559
 10
881.0094611277
 20
-1195.1273643383
 10
889.3290608206
 20
-1195.609986657
 10
897.6765081172
 20
-1195.8897104271
 10
906.0369615609
 20
-1195.9660383099
 10
914.3955565706
 20
-1195.8388345973
 10
922.7374318692
 20
-1195.5083254529
 10
931.0477559071
 20
-1194.9750985098
 10
939.3117532312
 20
-1194.2401018261
 10
947.514730756
 20
-1193.304642199
 10
955.6421038867
 20
-1192.1703828417
 10
963.6794224505
 20
-1190.8393404258
 10
971.6123963884
 20
-1189.3138814963
 10
979.4269211621
 20
-1187.5967182634
 10
987.1091028318
 20
-1185.6909037807
 10
994.6452827588
 20
-1183.5998265168
 10
1002.0220618902
 20
-1181.3272043308
 10
1009.2263245819
 20
-1178.8770778619
 10
1016.2452619179
 20
-1176.2538033457
 10
1023.0663944835
 20
-1173.4620448684
 10
1029.6775945541
 20
-1170.5067660748
 10
1036.0671076572
 20
-1167.3932213428
 10
1042.2235734716
 20
-1164.1269464411
 10
1048.1360460259
 20
-1160.7137486875
 10
1053.7940131595
 20
-1157.159696623
 10
1059.1874152134
 20
-1153.4711092224
 10
1064.3066629156
 20
-1149.6545446595
 10
1069.1426544304
 20
-1145.7167886468
 10
1073.6867915414
 20
-1141.6648423709
 10
1077.9309949387
 20
-1137.5059100443
 10
1081.8677185836
 20
-1133.247386097
 10
1085.4899631249
 20
-1128.896842029
 10
1088.7912883442
 20
-1124.4620129491
 10
1091.7658246057
 20
-1119.9507838215
 10
1094.4082832924
 20
-1115.3711754469
 10
1096.7139662092
 20
-1110.7313302019
 10
1098.6787739361
 20
-1106.039497562
 10
1100.2992131166
 20
-1101.3040194344
 10
1101.5724026689
 20
-1096.5333153265
 10
1102.4960789086
 20
-1091.735867376
 10
1103.0685995729
 20
-1086.9202052703
 10
1103.2889467411
 20
-1082.0948910809
 10
1103.1567286438
 20
-1077.2685040404
 10
1102.6721803601
 20
-1072.4496252888
 10
1101.8361633992
 20
-1067.6468226166
 10
1100.6501641685
 20
-1062.8686352317
 10
1099.1162913316
 20
-1058.123558577
 10
1097.2372720584
 20
-1053.4200292255
 10
1095.0164471764
 20
-1048.7664098808
 10
1092.4577652314
 20
-1044.1709745082
 10
1089.5657754665
 20
-1039.6418936243
 10
1086.3456197339
 20
-1035.1872197694
 10
1082.803023353
 20
-1030.8148731911
 10
1078.9442849309
 20
-1026.5326277622
 10
1074.7762651636
 20
-1022.3480971586
 10
1070.3063746383
 20
-1018.2687213231
 10
1065.5425606572
 20
-1014.3017532371
 10
1060.4932931076
 20
-1010.4542460251
 10
1055.1675494031
 20
-1006.7330404144
 10
1049.5747985215
 20
-1003.1447525729
 10
1043.7249841698
 20
-999.6957623454
 10
1037.6285071046
 20
-996.3922019106
 10
1031.2962066395
 20
-993.2399448785
 10
1024.7393413736
 20
-990.2445958469
 10
1017.9695691741
 20
-987.4114804373
 10
1010.998926449
 20
-984.7456358253
 10
1003.8398067467
 20
-982.2518017855
 10
996.5049387206
 20
-979.9344122637
 10
989.0073634986
 20
-977.797587494
 10
981.3604114956
 20
-975.8451266727
 10
973.5776787134
 20
-974.0805012041
 10
965.6730025668
 20
-972.5068485277
 10
957.6604372815
 20
-971.1269665406
 10
949.5542289062
 20
-969.9433086227
 10
941.3687899836
 20
-968.9579792744
 10
933.1186739253
 20
-968.1727303755
 10
924.8185491367
 20
-967.5889580699
 10
916.4831729366
 20
-967.2077002833
 10
908.1273653199
 20
-967.0296348782
 10
899.7659826076
 20
-967.0550784484
 10
891.4138910329
 20
-967.2839857561
 10
883.0859403098
 20
-967.7159498126
 10
874.796937231
 20
-968.3502026015
 10
866.5616193412
 20
-969.1856164444
 10
858.3946287354
 20
-970.2207060061
 10
850.3104860245
 20
-971.4536309351
 10
842.3235645195
 20
-972.8821991359
 10
834.4480646753
 20
-974.5038706662
 10
826.6979888432
 20
-976.3157622534
 10
819.0871163751
 20
-978.3146524203
 10
811.6289791247
 20
-980.4969872132
 10
804.3368373878
 20
-982.8588865203
 10
797.2236563262
 20
-985.396150971
 10
790.3020829163
 20
-988.1042694016
 10
783.5844234631
 20
-990.9784268764
 10
777.0826217199
 20
-994.0135132483
 10
770.8082376529
 20
-997.2041322445
 10
764.772426888
 20
-1000.5446110608
  0
LWPOLYLINE
  5
E8
330
1F
100
AcDbEntity
  8
0
  6
Continuous
 62
     1
370
    25
100
AcDbPolyline
 90
       21
 70
   128
 43
0.0
 10
1064.0907273643
 20
-747.1329416379
 10
1070.3761896835
 20
-750.6180320003
 10
1076.6518379995
 20
-753.8108212095
 10
1082.9078736322
 20
-756.706324104
 10
1089.1345285249
 20
-759.3000196997
 10
1095.3220804948
 20
-761.587858249
 10
1101.4608684143
 20
-763.5662675635
 10
1107.5413072946
 20
-765.2321585919
 10
1113.5539032522
 20
-766.582930243
 10
1119.4892683324
 20
-767.6164734474
 10
1125.338135167
 20
-768.3311744501
 10
1131.0913714448
 20
-768.7259173301
 10
1136.7399941703
 20
-768.8000857434
 10
1142.2751836898
 20
-768.5535638848
 10
1147.6882974617
 20
-767.986736669
 10
1152.9708835515
 20
-767.1004891293
 10
1158.1146938282
 20
-765.896205036
 10
1163.1116968425
 20
-764.3757647358
 10
1167.9540903675
 20
-762.5415422159
 10
1172.6343135805
 20
-760.3964013968
 10
1176.5815847858
 20
-758.2722529992
  0
LWPOLYLINE
  5
E9
330
1F
100
AcDbEntity
  8
0
  6
Continuous
 62
     1
370
    25
100
AcDbPolyline
 90
       61
 70
   128
 43
0.0
 10
951.5998699427
 20
-368.5502649279
 10
948.8467890136
 20
-370.2193413232
 10
944.6033805133
 20
-373.126075447
 10
940.546537321
 20
-376.3299172966
 10
936.682593716
 20
-379.8258644534
 10
933.0175827874
 20
-383.6084584108
 10
929.5572270147
 20
-387.6717930973
 10
926.3069293327
 20
-392.0095240983
 10
923.2717646955
 20
-396.6148785617
 10
920.4564721522
 20
-401.4806657732
 10
917.865447448
 20
-406.5992883836
 10
915.5027361605
 20
-411.9627542714
 10
913.3720273827
 20
-417.5626890212
 10
911.4766479636
 20
-423.3903489997
 10
909.8195573131
 20
-429.4366350076
 10
908.4033427815
 20
-435.6921064872
 10
907.2302156197
 20
-442.1469962621
 10
906.3020075266
 20
-448.7912257883
 10
905.6201677889
 20
-455.6144208901
 10
905.1857610183
 20
-462.6059279583
 10
904.9994654895
 20
-469.7548305845
 10
905.0615720809
 20
-477.0499666059
 10
905.3719838204
 20
-484.4799455337
 10
905.9302160368
 20
-492.0331663377
 10
906.7353971169
 20
-499.6978355602
 10
907.786269866
 20
-507.4619857302
 10
909.0811934711
 20
-515.3134940487
 10
910.6181460625
 20
-523.2401013176
 10
912.3947278714
 20
-531.2294310805
 10
914.408164976
 20
-539.2690089475
 10
916.6553136335
 20
-547.346282072
 10
919.1326651879
 20
-555.4486387509
 10
921.8363515487
 20
-563.563428116
 10
924.7621512309
 20
-571.6779798871
 10
927.9054959453
 20
-579.7796241548
 10
931.2614777325
 20
-587.8557111632
 10
934.8248566251
 20
-595.8936310613
 10
938.5900688302
 20
-603.8808335913
 10
942.5512354157
 20
-611.8048476845
 10
946.7021714903
 20
-619.6533009335
 10
951.03639586
 20
-627.4139389104
 10
955.547141148
 20
-635.0746443001
 10
960.227364361
 20
-642.6234558206
 10
965.069757886
 20
-650.0485868987
 10
970.0667609004
 20
-657.3384440737
 10
975.2105711771
 20
-664.481645099
 10
980.4931572669
 20
-671.4670367141
 10
985.9062710388
 20
-678.2837120593
 10
991.4414605582
 20
-684.9210277051
 10
997.0900832838
 20
-691.3686202711
 10
1002.8433195616
 20
-697.6164226069
 10
1008.6921863962
 20
-703.6546795108
 10
1014.6275514763
 20
-709.4739629614
 10
1020.640147434
 20
-715.0651868383
 10
1026.7205863143
 20
-720.4196211093
 10
1032.8593742337
 20
-725.5289054609
 10
1039.0469262037
 20
-730.3850623519
 10
1045.2735810963
 20
-734.9805094699
 10
1051.5296167291
 20
-739.3080715698
 10
1057.8052650451
 20
-743.360991677
 10
1064.0907273643
 20
-747.1329416379
  0
LWPOLYLINE
  5
EA
330
1F
100
AcDbEntity
  8
0
  6
Continuous
 62
     1
370
    25
100
AcDbPolyline
 90
       21
 70
   128
 43
0.0
 10
1064.0907273643
 20
-747.1329416379
 10
1070.2519825622
 20
-750.8331650444
 10
1076.155203449
 20
-754.6710174811
 10
1081.791172846
 20
-758.6405065968
 10
1087.151090856
 20
-762.7354345057
 10
1092.2265886033
 20
-766.9494074638
 10
1097.0097413007
 20
-771.2758458526
 10
1101.493080623
 20
-775.7079944521
 10
1105.669606368
 20
-780.2389329884
 10
1109.5327973866
 20
-784.8615869389
 10
1113.0766217647
 20
-789.5687385782
 10
1116.2955462411
 20
-794.3530382476
 10
1119.1845448473
 20
-799.2070158314
 10
1121.739106755
 20
-804.1230924195
 10
1123.9552433191
 20
-809.0935921421
 10
1125.8294943053
 20
-814.1107541538
 10
1127.3589332931
 20
-819.1667447517
 10
1128.5411722453
 20
-824.2536696068
 10
1129.374365236
 20
-829.3635860896
 10
1129.8572113332
 20
-834.4885156722
 10
1129.9917015973
 20
-838.9788542179
  0
LWPOLYLINE
  5
EB
330
1F
100
AcDbEntity
  8
0
  6
Continuous
 62
     1
370
    25
100
AcDbPolyline
 90
       61
 70
   128
 43
0.0
 10
679.9917015973
 20
-838.9788542179
 10
680.0603224276
 20
-835.7711564706
 10
680.4554426029
 20
-830.6437232794
 10
681.2011494926
 20
-825.5293044058
 10
682.2962787638
 20
-820.4358854076
 10
683.7391205023
 20
-815.371419054
 10
685.5274218819
 20
-810.343812908
 10
687.6583906823
 20
-805.3609169799
 10
690.1286996486
 20
-800.43051147
 10
692.9344916868
 20
-795.5602946214
 10
696.0713858855
 20
-790.7578706996
 10
699.5344843568
 20
-786.0307381193
 10
703.3183798836
 20
-781.386277737
 10
707.4171643622
 20
-776.8317413262
 10
711.8244380272
 20
-772.3742402549
 10
716.533319444
 20
-768.0207343818
 10
721.5364562531
 20
-763.7780211896
 10
726.8260366504
 20
-759.6527251714
 10
732.3938015839
 20
-755.651287487
 10
738.2310576497
 20
-751.7799559065
 10
744.3286906654
 20
-748.0447750547
 10
750.6771799007
 20
-744.4515769728
 10
757.2666129435
 20
-741.0059720134
 10
764.0867011762
 20
-737.7133400794
 10
771.1267958406
 20
-734.5788222249
 10
778.3759046646
 20
-731.6073126272
 10
785.8227090254
 20
-728.803450946
 10
793.4555816218
 20
-726.1716150784
 10
801.2626046294
 20
-723.7159143236
 10
809.2315883086
 20
-721.440182967
 10
817.3500900373
 20
-719.3479742929
 10
825.6054337387
 20
-717.4425550367
 10
833.9847296737
 20
-715.7269002844
 10
842.4748945662
 20
-714.2036888274
 10
851.0626720318
 20
-712.8752989794
 10
859.7346532753
 20
-711.7438048635
 10
868.4772980274
 20
-710.8109731735
 10
877.2769556862
 20
-710.0782604152
 10
886.1198866307
 20
-709.5468106328
 10
894.9922836741
 20
-709.2174536219
 10
903.8802936216
 20
-709.0907036345
 10
912.7700389008
 20
-709.1667585755
 10
921.6476392295
 20
-709.4454996943
 10
930.4992332888
 20
-709.9264917696
 10
939.3110003654
 20
-710.6089837894
 10
948.0691819308
 20
-711.4919101235
 10
956.7601031243
 20
-712.5738921872
 10
965.3701941041
 20
-713.8532405939
 10
973.8860112352
 20
-715.327957793
 10
982.2942580801
 20
-716.9957411887
 10
990.5818061593
 20
-718.853986735
 10
998.7357154505
 20
-720.8997930022
 10
1006.7432545921
 20
-723.1299657067
 10
1014.5919207623
 20
-725.5410226986
 10
1022.2694592007
 20
-728.1291993984
 10
1029.7638823422
 20
-730.8904546756
 10
1037.0634885349
 20
-733.8204771579
 10
1044.1568803101
 20
-736.9146919628
 10
1051.0329821787
 20
-740.1682678414
 10
1057.6810579238
 20
-743.5761247211
 10
1064.0907273643
 20
-747.1329416379
  0
LINE
  5
EC
330
1F
100
AcDbEntity
  8
0
  6
Continuous
 62
     7
370
    25
100
AcDbLine
 10
-283.9171953094
 20
112.8514052174
 30
0.0
 11
13.0828046906
 21
112.8514052174
 31
0.0
  0
LINE
  5
ED
330
1F
100
AcDbEntity
  8
0
  6
Continuous
 62
     7
370
    25
100
AcDbLine
 10
13.0828046906
 20
562.8514052174
 30
0.0
 11
-283.9171953094
 21
562.8514052174
 31
0.0
  0
ARC
  5
EE
330
1F
100
AcDbEntity
  8
0
  6
Continuous
 62
     7
370
    25
100
AcDbCircle
 10
13.0828046906
 20
112.8514052174
 30
0.0
 40
449.9999999999999
100
AcDbArc
 50
0.0
 51
90.0
  0
LINE
  5
EF
330
1F
100
AcDbEntity
  8
0
  6
Continuous
 62
     7
370
    25
100
AcDbLine
 10
13.0828046906
 20
112.8514052174
 30
0.0
 11
13.0828046906
 21
-184.1485947826
 31
0.0
  0
LINE
  5
F0
330
1F
100
AcDbEntity
  8
0
  6
Continuous
 62
     7
370
    25
100
AcDbLine
 10
463.0828046906
 20
-184.1485947826
 30
0.0
 11
463.0828046906
 21
112.8514052174
 31
0.0
  0
LINE
  5
F1
330
1F
100
AcDbEntity
  8
0
  6
Continuous
 62
     7
370
    25
100
AcDbLine
 10
-283.9171953094
 20
112.8514052174
 30
0.0
 11
-283.9171953094
 21
562.8514052174
 31
0.0
  0
LINE
  5
F2
330
1F
100
AcDbEntity
  8
0
  6
Continuous
 62
     7
370
    25
100
AcDbLine
 10
13.0828046906
 20
-184.1485947826
 30
0.0
 11
463.0828046906
 21
-184.1485947826
 31
0.0
  0
LINE
  5
F3
330
1F
100
AcDbEntity
  8
0
  6
Continuous
 62
     1
370
    25
100
AcDbLine
 10
13.0828046906
 20
112.8514052174
 30
0.0
 11
13.0828046906
 21
562.8514052174
 31
0.0
  0
LINE
  5
F4
330
1F
100
AcDbEntity
  8
0
  6
Continuous
 62
     1
370
    25
100
AcDbLine
 10
13.0828046906
 20
112.8514052174
 30
0.0
 11
463.0828046906
 21
112.8514052174
 31
0.0
  0
ENDSEC
  0
SECTION
  2
OBJECTS
  0
DICTIONARY
  5
C
330
0
100
AcDbDictionary
281
     1
  3
ACAD_GROUP
350
D
  3
ACAD_LAYOUT
350
1A
  3
ACAD_MLINESTYLE
350
17
  3
ACAD_PLOTSETTINGS
350
19
  3
ACAD_PLOTSTYLENAME
350
E
  3
ACAD_SCALELIST
350
47
  3
DWGPROPS
350
F5
  0
DICTIONARY
  5
D
102
{ACAD_REACTORS
330
C
102
}
330
C
100
AcDbDictionary
281
     1
  0
DICTIONARY
  5
1A
102
{ACAD_REACTORS
330
C
102
}
330
C
100
AcDbDictionary
281
     1
  3
Layout1
350
1E
  3
Layout2
350
26
  3
Model
350
22
  0
DICTIONARY
  5
17
102
{ACAD_REACTORS
330
C
102
}
330
C
100
AcDbDictionary
281
     1
  3
Standard
350
18
  0
DICTIONARY
  5
19
102
{ACAD_REACTORS
330
C
102
}
330
C
100
AcDbDictionary
281
     1
  0
ACDBDICTIONARYWDFLT
  5
E
102
{ACAD_REACTORS
330
C
102
}
330
C
100
AcDbDictionary
281
     1
  3
Normal
350
F
100
AcDbDictionaryWithDefault
340
F
  0
DICTIONARY
  5
47
102
{ACAD_REACTORS
330
C
102
}
330
C
100
AcDbDictionary
281
     1
  3
A0
350
48
  3
A1
350
49
  3
A2
350
4A
  3
A3
350
4B
  3
A4
350
4C
  3
A5
350
4D
  3
A6
350
4E
  3
A7
350
4F
  3
A8
350
50
  3
A9
350
51
  3
B0
350
52
  3
B1
350
53
  3
B2
350
54
  3
B3
350
55
  3
B4
350
56
  3
B5
350
57
  3
B6
350
58
  3
B7
350
59
  3
B8
350
5A
  3
B9
350
5B
  3
C0
350
5C
  3
C1
350
5D
  3
C2
350
5E
  3
C3
350
5F
  3
C4
350
60
  3
C5
350
61
  3
C6
350
62
  3
C7
350
63
  3
C8
350
64
  3
C9
350
65
  3
D0
350
66
  3
D1
350
67
  3
D2
350
68
  0
XRECORD
  5
F5
102
{ACAD_REACTORS
330
C
102
}
330
C
100
AcDbXrecord
280
     1
  1
DWGPROPS COOKIE
  2

  3

  4

  6

  7

  8
b.kav
  9

300
=
301
=
302
=
303
=
304
=
305
=
306
=
307
=
308
=
309
=
 40
0.0
 41
2459935.574946273
 42
2459935.574946632
  1

 90
        0
  0
LAYOUT
  5
1E
102
{ACAD_REACTORS
330
1A
102
}
330
1A
100
AcDbPlotSettings
  1

  2
none_device
  4

  6

 40
0.0
 41
0.0
 42
0.0
 43
0.0
 44
0.0
 45
0.0
 46
0.0
 47
0.0
 48
0.0
 49
0.0
140
0.0
141
0.0
142
1.0
143
1.0
 70
   688
 72
     1
 73
     0
 74
     5
  7

 75
    16
147
1.0
148
0.0
149
0.0
100
AcDbLayout
  1
Layout1
 70
     1
 71
     1
 10
0.0
 20
0.0
 11
420.0
 21
297.0
 12
0.0
 22
0.0
 32
0.0
 14
1.0000000000E+20
 24
1.0000000000E+20
 34
1.0000000000E+20
 15
-1.0000000000E+20
 25
-1.0000000000E+20
 35
-1.0000000000E+20
146
0.0
 13
0.0
 23
0.0
 33
0.0
 16
1.0
 26
0.0
 36
0.0
 17
0.0
 27
1.0
 37
0.0
 76
     0
330
1B
  0
LAYOUT
  5
26
102
{ACAD_REACTORS
330
1A
102
}
330
1A
100
AcDbPlotSettings
  1

  2
none_device
  4

  6

 40
0.0
 41
0.0
 42
0.0
 43
0.0
 44
0.0
 45
0.0
 46
0.0
 47
0.0
 48
0.0
 49
0.0
140
0.0
141
0.0
142
1.0
143
1.0
 70
   688
 72
     1
 73
     0
 74
     5
  7

 75
    16
147
1.0
148
0.0
149
0.0
100
AcDbLayout
  1
Layout2
 70
     1
 71
     2
 10
0.0
 20
0.0
 11
0.0
 21
0.0
 12
0.0
 22
0.0
 32
0.0
 14
0.0
 24
0.0
 34
0.0
 15
0.0
 25
0.0
 35
0.0
146
0.0
 13
0.0
 23
0.0
 33
0.0
 16
1.0
 26
0.0
 36
0.0
 17
0.0
 27
1.0
 37
0.0
 76
     0
330
23
  0
LAYOUT
  5
22
102
{ACAD_REACTORS
330
1A
102
}
330
1A
100
AcDbPlotSettings
  1

  2
none_device
  4
Letter_(8.50_x_11.00_Inches)
  6

 40
6.35
 41
6.35
 42
6.35000508
 43
6.35000508
 44
215.9
 45
279.4
 46
0.0
 47
0.0
 48
0.0
 49
0.0
140
0.0
141
0.0
142
1.0
143
1.0
 70
  1712
 72
     1
 73
     0
 74
     0
  7

 75
     0
147
1.0
148
0.0
149
0.0
100
AcDbLayout
  1
Model
 70
     1
 71
     0
 10
0.0
 20
0.0
 11
279.4
 21
215.9
 12
0.0
 22
0.0
 32
0.0
 14
0.0
 24
0.0
 34
0.0
 15
279.4
 25
215.9
 35
0.0
146
0.0
 13
0.0
 23
0.0
 33
0.0
 16
1.0
 26
0.0
 36
0.0
 17
0.0
 27
1.0
 37
0.0
 76
     0
330
1F
331
29
  0
MLINESTYLE
  5
18
102
{ACAD_REACTORS
330
17
102
}
330
17
100
AcDbMlineStyle
  2
Standard
 70
     0
  3

 62
   256
 51
90.0
 52
90.0
 71
     2
 49
0.5
 62
   256
  6
BYLAYER
 49
-0.5
 62
   256
  6
BYLAYER
  0
ACDBPLACEHOLDER
  5
F
102
{ACAD_REACTORS
330
E
102
}
330
E
  0
SCALE
  5
48
102
{ACAD_REACTORS
330
47
102
}
330
47
100
AcDbScale
 70
     0
300
1:1
140
1.0
141
1.0
290
     1
  0
SCALE
  5
49
102
{ACAD_REACTORS
330
47
102
}
330
47
100
AcDbScale
 70
     0
300
1:2
140
1.0
141
2.0
290
     0
  0
SCALE
  5
4A
102
{ACAD_REACTORS
330
47
102
}
330
47
100
AcDbScale
 70
     0
300
1:4
140
1.0
141
4.0
290
     0
  0
SCALE
  5
4B
102
{ACAD_REACTORS
330
47
102
}
330
47
100
AcDbScale
 70
     0
300
1:5
140
1.0
141
5.0
290
     0
  0
SCALE
  5
4C
102
{ACAD_REACTORS
330
47
102
}
330
47
100
AcDbScale
 70
     0
300
1:8
140
1.0
141
8.0
290
     0
  0
SCALE
  5
4D
102
{ACAD_REACTORS
330
47
102
}
330
47
100
AcDbScale
 70
     0
300
1:10
140
1.0
141
10.0
290
     0
  0
SCALE
  5
4E
102
{ACAD_REACTORS
330
47
102
}
330
47
100
AcDbScale
 70
     0
300
1:16
140
1.0
141
16.0
290
     0
  0
SCALE
  5
4F
102
{ACAD_REACTORS
330
47
102
}
330
47
100
AcDbScale
 70
     0
300
1:20
140
1.0
141
20.0
290
     0
  0
SCALE
  5
50
102
{ACAD_REACTORS
330
47
102
}
330
47
100
AcDbScale
 70
     0
300
1:30
140
1.0
141
30.0
290
     0
  0
SCALE
  5
51
102
{ACAD_REACTORS
330
47
102
}
330
47
100
AcDbScale
 70
     0
300
1:40
140
1.0
141
40.0
290
     0
  0
SCALE
  5
52
102
{ACAD_REACTORS
330
47
102
}
330
47
100
AcDbScale
 70
     0
300
1:50
140
1.0
141
50.0
290
     0
  0
SCALE
  5
53
102
{ACAD_REACTORS
330
47
102
}
330
47
100
AcDbScale
 70
     0
300
1:100
140
1.0
141
100.0
290
     0
  0
SCALE
  5
54
102
{ACAD_REACTORS
330
47
102
}
330
47
100
AcDbScale
 70
     0
300
2:1
140
2.0
141
1.0
290
     0
  0
SCALE
  5
55
102
{ACAD_REACTORS
330
47
102
}
330
47
100
AcDbScale
 70
     0
300
4:1
140
4.0
141
1.0
290
     0
  0
SCALE
  5
56
102
{ACAD_REACTORS
330
47
102
}
330
47
100
AcDbScale
 70
     0
300
8:1
140
8.0
141
1.0
290
     0
  0
SCALE
  5
57
102
{ACAD_REACTORS
330
47
102
}
330
47
100
AcDbScale
 70
     0
300
10:1
140
10.0
141
1.0
290
     0
  0
SCALE
  5
58
102
{ACAD_REACTORS
330
47
102
}
330
47
100
AcDbScale
 70
     0
300
100:1
140
100.0
141
1.0
290
     0
  0
SCALE
  5
59
102
{ACAD_REACTORS
330
47
102
}
330
47
100
AcDbScale
 70
     0
300
1/128" = 1'-0"
140
0.0078125
141
12.0
290
     0
  0
SCALE
  5
5A
102
{ACAD_REACTORS
330
47
102
}
330
47
100
AcDbScale
 70
     0
300
1/64" = 1'-0"
140
0.015625
141
12.0
290
     0
  0
SCALE
  5
5B
102
{ACAD_REACTORS
330
47
102
}
330
47
100
AcDbScale
 70
     0
300
1/32" = 1'-0"
140
0.03125
141
12.0
290
     0
  0
SCALE
  5
5C
102
{ACAD_REACTORS
330
47
102
}
330
47
100
AcDbScale
 70
     0
300
1/16" = 1'-0"
140
0.0625
141
12.0
290
     0
  0
SCALE
  5
5D
102
{ACAD_REACTORS
330
47
102
}
330
47
100
AcDbScale
 70
     0
300
3/32" = 1'-0"
140
0.09375
141
12.0
290
     0
  0
SCALE
  5
5E
102
{ACAD_REACTORS
330
47
102
}
330
47
100
AcDbScale
 70
     0
300
1/8" = 1'-0"
140
0.125
141
12.0
290
     0
  0
SCALE
  5
5F
102
{ACAD_REACTORS
330
47
102
}
330
47
100
AcDbScale
 70
     0
300
3/16" = 1'-0"
140
0.1875
141
12.0
290
     0
  0
SCALE
  5
60
102
{ACAD_REACTORS
330
47
102
}
330
47
100
AcDbScale
 70
     0
300
1/4" = 1'-0"
140
0.25
141
12.0
290
     0
  0
SCALE
  5
61
102
{ACAD_REACTORS
330
47
102
}
330
47
100
AcDbScale
 70
     0
300
3/8" = 1'-0"
140
0.375
141
12.0
290
     0
  0
SCALE
  5
62
102
{ACAD_REACTORS
330
47
102
}
330
47
100
AcDbScale
 70
     0
300
1/2" = 1'-0"
140
0.5
141
12.0
290
     0
  0
SCALE
  5
63
102
{ACAD_REACTORS
330
47
102
}
330
47
100
AcDbScale
 70
     0
300
3/4" = 1'-0"
140
0.75
141
12.0
290
     0
  0
SCALE
  5
64
102
{ACAD_REACTORS
330
47
102
}
330
47
100
AcDbScale
 70
     0
300
1" = 1'-0"
140
1.0
141
12.0
290
     0
  0
SCALE
  5
65
102
{ACAD_REACTORS
330
47
102
}
330
47
100
AcDbScale
 70
     0
300
1-1/2" = 1'-0"
140
1.5
141
12.0
290
     0
  0
SCALE
  5
66
102
{ACAD_REACTORS
330
47
102
}
330
47
100
AcDbScale
 70
     0
300
3" = 1'-0"
140
3.0
141
12.0
290
     0
  0
SCALE
  5
67
102
{ACAD_REACTORS
330
47
102
}
330
47
100
AcDbScale
 70
     0
300
6" = 1'-0"
140
6.0
141
12.0
290
     0
  0
SCALE
  5
68
102
{ACAD_REACTORS
330
47
102
}
330
47
100
AcDbScale
 70
     0
300
1'-0" = 1'-0"
140
12.0
141
12.0
290
     0
  0
ENDSEC
  0
EOF
